ISO-10303-21;
HEADER;
FILE_DESCRIPTION (( 'STEP AP214' ),
    '1' );
FILE_NAME ('1124683.STEP',
    '2026-02-20T10:49:41',
    ( '' ),
    ( '' ),
    'SwSTEP 2.0',
    'SolidWorks 2024',
    '' );
FILE_SCHEMA (( 'AUTOMOTIVE_DESIGN' ));
ENDSEC;

DATA;
#1 = ORIENTED_EDGE ( 'NONE', *, *, #184, .T. ) ;
#2 = ADVANCED_FACE ( 'NONE', ( #155 ), #280, .F. ) ;
#3 = ORIENTED_EDGE ( 'NONE', *, *, #390, .T. ) ;
#4 = CARTESIAN_POINT ( 'NONE',  ( 20.00000000000000000, 17.49999999999999289, 0.000000000000000000 ) ) ;
#5 = ORIENTED_EDGE ( 'NONE', *, *, #135, .F. ) ;
#6 = PLANE ( 'NONE',  #316 ) ;
#7 = VERTEX_POINT ( 'NONE', #345 ) ;
#8 = PRODUCT ( '1124683', '1124683', '', ( #283 ) ) ;
#9 = VECTOR ( 'NONE', #201, 1000.000000000000114 ) ;
#10 = CARTESIAN_POINT ( 'NONE',  ( 20.00000000000000000, -20.00000000000000000, 4.000000000000000000 ) ) ;
#11 = ADVANCED_FACE ( 'NONE', ( #187 ), #311, .F. ) ;
#12 = DIRECTION ( 'NONE',  ( 0.000000000000000000, 0.000000000000000000, 1.000000000000000000 ) ) ;
#13 = CARTESIAN_POINT ( 'NONE',  ( -20.00000000000000000, -20.00000000000000000, 0.000000000000000000 ) ) ;
#14 =( NAMED_UNIT ( * ) SI_UNIT ( $, .STERADIAN. ) SOLID_ANGLE_UNIT ( ) );
#15 = VECTOR ( 'NONE', #374, 1000.000000000000114 ) ;
#16 = EDGE_CURVE ( 'NONE', #274, #333, #350, .T. ) ;
#17 = ORIENTED_EDGE ( 'NONE', *, *, #293, .F. ) ;
#18 = AXIS2_PLACEMENT_3D ( 'NONE', #384, #205, #172 ) ;
#19 = EDGE_CURVE ( 'NONE', #63, #7, #220, .T. ) ;
#20 = CARTESIAN_POINT ( 'NONE',  ( 17.49999999999999289, -20.00000000000000000, 4.000000000000000000 ) ) ;
#21 = LINE ( 'NONE', #120, #267 ) ;
#22 = CARTESIAN_POINT ( 'NONE',  ( 20.00000000000000000, -17.50000000000000355, 0.000000000000000000 ) ) ;
#23 = EDGE_LOOP ( 'NONE', ( #296, #33, #182, #387 ) ) ;
#24 = ORIENTED_EDGE ( 'NONE', *, *, #332, .T. ) ;
#25 = LINE ( 'NONE', #269, #40 ) ;
#26 = CARTESIAN_POINT ( 'NONE',  ( -20.00000000000000000, -17.50000000000000355, 0.000000000000000000 ) ) ;
#27 = ORIENTED_EDGE ( 'NONE', *, *, #361, .T. ) ;
#28 = AXIS2_PLACEMENT_3D ( 'NONE', #297, #59, #114 ) ;
#29 = ORIENTED_EDGE ( 'NONE', *, *, #166, .F. ) ;
#30 = DIRECTION ( 'NONE',  ( -1.000000000000000000, -0.000000000000000000, -0.000000000000000000 ) ) ;
#31 = ORIENTED_EDGE ( 'NONE', *, *, #370, .T. ) ;
#32 = DIRECTION ( 'NONE',  ( 1.000000000000000000, 0.000000000000000000, 0.000000000000000000 ) ) ;
#33 = ORIENTED_EDGE ( 'NONE', *, *, #349, .T. ) ;
#34 = DIRECTION ( 'NONE',  ( 0.000000000000000000, 0.000000000000000000, -1.000000000000000000 ) ) ;
#35 = CARTESIAN_POINT ( 'NONE',  ( -17.49999999999999289, -20.00000000000000000, 4.000000000000000000 ) ) ;
#36 = CARTESIAN_POINT ( 'NONE',  ( 6.500000000000004441, 4.265467371399393441E-15, 4.000000000000000000 ) ) ;
#37 = ADVANCED_FACE ( 'NONE', ( #159 ), #41, .F. ) ;
#38 = AXIS2_PLACEMENT_3D ( 'NONE', #136, #139, #177 ) ;
#39 = CARTESIAN_POINT ( 'NONE',  ( 20.00000000000000000, 17.49999999999999289, 4.000000000000000000 ) ) ;
#40 = VECTOR ( 'NONE', #30, 1000.000000000000000 ) ;
#41 = CYLINDRICAL_SURFACE ( 'NONE', #285, 6.500000000000000888 ) ;
#42 = EDGE_CURVE ( 'NONE', #7, #175, #189, .T. ) ;
#43 = CARTESIAN_POINT ( 'NONE',  ( -20.00000000000000000, -20.00000000000000000, 4.000000000000000000 ) ) ;
#44 = VECTOR ( 'NONE', #228, 1000.000000000000000 ) ;
#45 = CARTESIAN_POINT ( 'NONE',  ( 20.00000000000000000, -20.00000000000000000, 4.000000000000000000 ) ) ;
#46 = EDGE_CURVE ( 'NONE', #124, #274, #131, .T. ) ;
#47 = CARTESIAN_POINT ( 'NONE',  ( 20.00000000000000000, -17.50000000000000355, 4.000000000000000000 ) ) ;
#48 = ORIENTED_EDGE ( 'NONE', *, *, #71, .T. ) ;
#49 = FACE_OUTER_BOUND ( 'NONE', #153, .T. ) ;
#50 = DIRECTION ( 'NONE',  ( -0.000000000000000000, -0.000000000000000000, -1.000000000000000000 ) ) ;
#51 = ADVANCED_FACE ( 'NONE', ( #315 ), #282, .F. ) ;
#52 = SURFACE_STYLE_USAGE ( .BOTH. , #391 ) ;
#53 = EDGE_LOOP ( 'NONE', ( #356, #91, #336, #235 ) ) ;
#54 = CARTESIAN_POINT ( 'NONE',  ( -17.49999999999999289, -20.00000000000000000, 4.000000000000000000 ) ) ;
#55 = LINE ( 'NONE', #328, #239 ) ;
#56 = ORIENTED_EDGE ( 'NONE', *, *, #162, .F. ) ;
#57 = DIRECTION ( 'NONE',  ( 1.000000000000000000, 0.000000000000000000, 0.000000000000000000 ) ) ;
#58 = ORIENTED_EDGE ( 'NONE', *, *, #324, .T. ) ;
#59 = DIRECTION ( 'NONE',  ( 0.000000000000000000, 0.000000000000000000, 1.000000000000000000 ) ) ;
#60 = CIRCLE ( 'NONE', #233, 6.500000000000000888 ) ;
#61 = EDGE_LOOP ( 'NONE', ( #242, #68, #261, #392 ) ) ;
#62 = PLANE ( 'NONE',  #389 ) ;
#63 = VERTEX_POINT ( 'NONE', #246 ) ;
#64 = DIRECTION ( 'NONE',  ( -1.000000000000000000, 0.000000000000000000, -0.000000000000000000 ) ) ;
#65 = UNCERTAINTY_MEASURE_WITH_UNIT (LENGTH_MEASURE( 1.000000000000000082E-05 ), #375, 'distance_accuracy_value', 'NONE');
#66 = DIRECTION ( 'NONE',  ( 0.000000000000000000, 0.000000000000000000, -1.000000000000000000 ) ) ;
#67 = LINE ( 'NONE', #319, #292 ) ;
#68 = ORIENTED_EDGE ( 'NONE', *, *, #179, .T. ) ;
#69 = DIRECTION ( 'NONE',  ( -1.000000000000000000, 0.000000000000000000, 0.000000000000000000 ) ) ;
#70 = DIRECTION ( 'NONE',  ( -0.7071067811865455743, 0.7071067811865495711, -0.000000000000000000 ) ) ;
#71 = EDGE_CURVE ( 'NONE', #309, #183, #170, .T. ) ;
#72 = CARTESIAN_POINT ( 'NONE',  ( -20.00000000000000000, -20.00000000000000000, 4.000000000000000000 ) ) ;
#73 = CARTESIAN_POINT ( 'NONE',  ( 0.000000000000000000, 0.000000000000000000, 0.000000000000000000 ) ) ;
#74 = ORIENTED_EDGE ( 'NONE', *, *, #191, .F. ) ;
#75 = VECTOR ( 'NONE', #66, 1000.000000000000000 ) ;
#76 = AXIS2_PLACEMENT_3D ( 'NONE', #252, #128, #219 ) ;
#77 = EDGE_CURVE ( 'NONE', #333, #314, #133, .T. ) ;
#78 = CARTESIAN_POINT ( 'NONE',  ( 18.75000000000004974, 18.74999999999994671, 0.000000000000000000 ) ) ;
#79 = VECTOR ( 'NONE', #12, 1000.000000000000000 ) ;
#80 = FACE_BOUND ( 'NONE', #270, .T. ) ;
#81 = VERTEX_POINT ( 'NONE', #36 ) ;
#82 = PLANE ( 'NONE',  #298 ) ;
#83 = EDGE_LOOP ( 'NONE', ( #190, #215, #359, #27 ) ) ;
#84 = CARTESIAN_POINT ( 'NONE',  ( 17.50000000000000355, 20.00000000000000000, 4.000000000000000000 ) ) ;
#85 = ORIENTED_EDGE ( 'NONE', *, *, #71, .F. ) ;
#86 = DIRECTION ( 'NONE',  ( -1.000000000000000000, -0.000000000000000000, -0.000000000000000000 ) ) ;
#87 = STYLED_ITEM ( 'NONE', ( #174 ), #211 ) ;
#88 = EDGE_CURVE ( 'NONE', #124, #7, #157, .T. ) ;
#89 = ORIENTED_EDGE ( 'NONE', *, *, #104, .F. ) ;
#90 = CIRCLE ( 'NONE', #173, 6.500000000000000888 ) ;
#91 = ORIENTED_EDGE ( 'NONE', *, *, #16, .F. ) ;
#92 = DIRECTION ( 'NONE',  ( 0.000000000000000000, 0.000000000000000000, 1.000000000000000000 ) ) ;
#93 = DIRECTION ( 'NONE',  ( 0.000000000000000000, 1.000000000000000000, 0.000000000000000000 ) ) ;
#94 = DIRECTION ( 'NONE',  ( 1.000000000000000000, 0.000000000000000000, 0.000000000000000000 ) ) ;
#95 = VECTOR ( 'NONE', #355, 1000.000000000000000 ) ;
#96 = UNCERTAINTY_MEASURE_WITH_UNIT (LENGTH_MEASURE( 1.000000000000000082E-05 ), #331, 'distance_accuracy_value', 'NONE');
#97 = VERTEX_POINT ( 'NONE', #279 ) ;
#98 = DIRECTION ( 'NONE',  ( 1.000000000000000000, 0.000000000000000000, 0.000000000000000000 ) ) ;
#99 = ORIENTED_EDGE ( 'NONE', *, *, #271, .F. ) ;
#100 = VERTEX_POINT ( 'NONE', #378 ) ;
#101 = APPLICATION_PROTOCOL_DEFINITION ( 'draft international standard', 'automotive_design', 1998, #111 ) ;
#102 = ADVANCED_BREP_SHAPE_REPRESENTATION ( '1124683', ( #211, #212 ), #168 ) ;
#103 = ORIENTED_EDGE ( 'NONE', *, *, #221, .T. ) ;
#104 = EDGE_CURVE ( 'NONE', #100, #333, #372, .T. ) ;
#105 = CARTESIAN_POINT ( 'NONE',  ( -6.499999999999997335, 3.469446951953614189E-15, 0.000000000000000000 ) ) ;
#106 = AXIS2_PLACEMENT_3D ( 'NONE', #176, #34, #64 ) ;
#107 = EDGE_CURVE ( 'NONE', #183, #237, #218, .T. ) ;
#108 = CARTESIAN_POINT ( 'NONE',  ( -17.49999999999999289, -20.00000000000000000, 4.000000000000000000 ) ) ;
#109 = VECTOR ( 'NONE', #70, 1000.000000000000114 ) ;
#110 = EDGE_LOOP ( 'NONE', ( #85, #327, #99, #300 ) ) ;
#111 = APPLICATION_CONTEXT ( 'automotive_design' ) ;
#112 = CARTESIAN_POINT ( 'NONE',  ( -20.00000000000000000, 20.00000000000000000, 4.000000000000000000 ) ) ;
#113 = EDGE_LOOP ( 'NONE', ( #31, #151, #255, #230, #121, #213, #24, #48 ) ) ;
#114 = DIRECTION ( 'NONE',  ( 1.000000000000000000, 0.000000000000000000, 0.000000000000000000 ) ) ;
#115 = DIRECTION ( 'NONE',  ( 0.000000000000000000, -1.000000000000000000, 0.000000000000000000 ) ) ;
#116 = ORIENTED_EDGE ( 'NONE', *, *, #88, .F. ) ;
#117 = CARTESIAN_POINT ( 'NONE',  ( 20.00000000000000000, 17.49999999999999289, 4.000000000000000000 ) ) ;
#118 = PRODUCT_RELATED_PRODUCT_CATEGORY ( 'part', '', ( #8 ) ) ;
#119 = ORIENTED_EDGE ( 'NONE', *, *, #351, .F. ) ;
#120 = CARTESIAN_POINT ( 'NONE',  ( 20.00000000000000000, -17.50000000000000355, 4.000000000000000000 ) ) ;
#121 = ORIENTED_EDGE ( 'NONE', *, *, #104, .T. ) ;
#122 = FACE_BOUND ( 'NONE', #366, .T. ) ;
#123 = VECTOR ( 'NONE', #32, 1000.000000000000000 ) ;
#124 = VERTEX_POINT ( 'NONE', #22 ) ;
#125 = EDGE_CURVE ( 'NONE', #314, #232, #236, .T. ) ;
#126 = DIRECTION ( 'NONE',  ( 0.7071067811865495711, -0.7071067811865455743, -0.000000000000000000 ) ) ;
#127 = DIRECTION ( 'NONE',  ( -0.000000000000000000, -0.000000000000000000, -1.000000000000000000 ) ) ;
#128 = DIRECTION ( 'NONE',  ( 0.000000000000000000, 1.000000000000000000, 0.000000000000000000 ) ) ;
#129 = DIRECTION ( 'NONE',  ( 1.000000000000000000, 0.000000000000000000, 0.000000000000000000 ) ) ;
#130 = VECTOR ( 'NONE', #367, 1000.000000000000114 ) ;
#131 = LINE ( 'NONE', #318, #313 ) ;
#132 = FACE_OUTER_BOUND ( 'NONE', #272, .T. ) ;
#133 = LINE ( 'NONE', #223, #109 ) ;
#134 = PRODUCT_DEFINITION_SHAPE ( 'NONE', 'NONE',  #147 ) ;
#135 = EDGE_CURVE ( 'NONE', #100, #124, #323, .T. ) ;
#136 = CARTESIAN_POINT ( 'NONE',  ( 0.000000000000000000, 0.000000000000000000, 0.000000000000000000 ) ) ;
#137 = VECTOR ( 'NONE', #231, 1000.000000000000000 ) ;
#138 = DIRECTION ( 'NONE',  ( 0.000000000000000000, -0.000000000000000000, -1.000000000000000000 ) ) ;
#139 = DIRECTION ( 'NONE',  ( 0.000000000000000000, 0.000000000000000000, -1.000000000000000000 ) ) ;
#140 = CARTESIAN_POINT ( 'NONE',  ( -20.00000000000000000, -20.00000000000000000, 0.000000000000000000 ) ) ;
#141 = ORIENTED_EDGE ( 'NONE', *, *, #305, .F. ) ;
#142 = LINE ( 'NONE', #78, #9 ) ;
#143 = ORIENTED_EDGE ( 'NONE', *, *, #293, .T. ) ;
#144 = DIRECTION ( 'NONE',  ( 0.000000000000000000, 0.000000000000000000, 1.000000000000000000 ) ) ;
#145 = DIRECTION ( 'NONE',  ( -0.000000000000000000, -0.000000000000000000, -1.000000000000000000 ) ) ;
#146 = ORIENTED_EDGE ( 'NONE', *, *, #16, .T. ) ;
#147 = PRODUCT_DEFINITION ( 'UNKNOWN', '', #383, #289 ) ;
#148 = VERTEX_POINT ( 'NONE', #299 ) ;
#149 = CARTESIAN_POINT ( 'NONE',  ( -20.00000000000000000, 17.49999999999999289, 4.000000000000000000 ) ) ;
#150 = APPLICATION_CONTEXT ( 'automotive_design' ) ;
#151 = ORIENTED_EDGE ( 'NONE', *, *, #287, .T. ) ;
#152 = ADVANCED_FACE ( 'NONE', ( #362 ), #82, .F. ) ;
#153 = EDGE_LOOP ( 'NONE', ( #306, #143, #1, #167 ) ) ;
#154 = DIRECTION ( 'NONE',  ( 0.000000000000000000, 0.000000000000000000, -1.000000000000000000 ) ) ;
#155 = FACE_OUTER_BOUND ( 'NONE', #240, .T. ) ;
#156 =( NAMED_UNIT ( * ) PLANE_ANGLE_UNIT ( ) SI_UNIT ( $, .RADIAN. ) );
#157 = LINE ( 'NONE', #288, #365 ) ;
#158 = APPLICATION_PROTOCOL_DEFINITION ( 'draft international standard', 'automotive_design', 1998, #150 ) ;
#159 = FACE_OUTER_BOUND ( 'NONE', #61, .T. ) ;
#160 = DIRECTION ( 'NONE',  ( 1.000000000000000000, 0.000000000000000000, 0.000000000000000000 ) ) ;
#161 = VECTOR ( 'NONE', #92, 1000.000000000000000 ) ;
#162 = EDGE_CURVE ( 'NONE', #148, #81, #217, .T. ) ;
#163 = DIRECTION ( 'NONE',  ( 0.000000000000000000, 0.000000000000000000, 1.000000000000000000 ) ) ;
#164 = DIRECTION ( 'NONE',  ( 0.000000000000000000, 0.000000000000000000, 1.000000000000000000 ) ) ;
#165 = VECTOR ( 'NONE', #98, 1000.000000000000000 ) ;
#166 = EDGE_CURVE ( 'NONE', #237, #209, #386, .T. ) ;
#167 = ORIENTED_EDGE ( 'NONE', *, *, #253, .F. ) ;
#168 =( GEOMETRIC_REPRESENTATION_CONTEXT ( 3 ) GLOBAL_UNCERTAINTY_ASSIGNED_CONTEXT ( ( #65 ) ) GLOBAL_UNIT_ASSIGNED_CONTEXT ( ( #375, #156, #14 ) ) REPRESENTATION_CONTEXT ( 'NONE', 'WORKASPACE' ) );
#169 = CARTESIAN_POINT ( 'NONE',  ( -20.00000000000000000, 17.49999999999999289, 0.000000000000000000 ) ) ;
#170 = LINE ( 'NONE', #377, #15 ) ;
#171 = DIRECTION ( 'NONE',  ( 0.000000000000000000, 0.000000000000000000, -1.000000000000000000 ) ) ;
#172 = DIRECTION ( 'NONE',  ( 1.000000000000000000, 0.000000000000000000, 0.000000000000000000 ) ) ;
#173 = AXIS2_PLACEMENT_3D ( 'NONE', #304, #144, #57 ) ;
#174 = PRESENTATION_STYLE_ASSIGNMENT (( #52 ) ) ;
#175 = VERTEX_POINT ( 'NONE', #20 ) ;
#176 = CARTESIAN_POINT ( 'NONE',  ( 0.000000000000000000, 0.000000000000000000, 4.000000000000000000 ) ) ;
#177 = DIRECTION ( 'NONE',  ( -1.000000000000000000, 0.000000000000000000, -0.000000000000000000 ) ) ;
#178 =( GEOMETRIC_REPRESENTATION_CONTEXT ( 3 ) GLOBAL_UNCERTAINTY_ASSIGNED_CONTEXT ( ( #96 ) ) GLOBAL_UNIT_ASSIGNED_CONTEXT ( ( #331, #260, #259 ) ) REPRESENTATION_CONTEXT ( 'NONE', 'WORKASPACE' ) );
#179 = EDGE_CURVE ( 'NONE', #81, #97, #263, .T. ) ;
#180 = ORIENTED_EDGE ( 'NONE', *, *, #287, .F. ) ;
#181 = CARTESIAN_POINT ( 'NONE',  ( 3.469446951953614189E-15, 3.469446951953614189E-15, 0.000000000000000000 ) ) ;
#182 = ORIENTED_EDGE ( 'NONE', *, *, #370, .F. ) ;
#183 = VERTEX_POINT ( 'NONE', #291 ) ;
#184 = EDGE_CURVE ( 'NONE', #148, #200, #55, .T. ) ;
#185 = AXIS2_PLACEMENT_3D ( 'NONE', #45, #348, #163 ) ;
#186 = VERTEX_POINT ( 'NONE', #385 ) ;
#187 = FACE_OUTER_BOUND ( 'NONE', #23, .T. ) ;
#188 = LINE ( 'NONE', #247, #321 ) ;
#189 = LINE ( 'NONE', #222, #79 ) ;
#190 = ORIENTED_EDGE ( 'NONE', *, *, #332, .F. ) ;
#191 = EDGE_CURVE ( 'NONE', #186, #63, #295, .T. ) ;
#192 = AXIS2_PLACEMENT_3D ( 'NONE', #72, #129, #312 ) ;
#193 = DIRECTION ( 'NONE',  ( -0.7071067811865495711, -0.7071067811865455743, -0.000000000000000000 ) ) ;
#194 = CARTESIAN_POINT ( 'NONE',  ( 3.469446951953614189E-15, 3.469446951953614189E-15, 4.000000000000000000 ) ) ;
#195 = DIRECTION ( 'NONE',  ( -0.000000000000000000, -1.000000000000000000, -0.000000000000000000 ) ) ;
#196 = ORIENTED_EDGE ( 'NONE', *, *, #42, .F. ) ;
#197 = MECHANICAL_DESIGN_GEOMETRIC_PRESENTATION_REPRESENTATION (  '', ( #87 ), #178 ) ;
#198 = FILL_AREA_STYLE_COLOUR ( '', #320 ) ;
#199 = ADVANCED_FACE ( 'NONE', ( #264, #80 ), #203, .T. ) ;
#200 = VERTEX_POINT ( 'NONE', #105 ) ;
#201 = DIRECTION ( 'NONE',  ( 0.7071067811865455743, -0.7071067811865495711, -0.000000000000000000 ) ) ;
#202 = EDGE_LOOP ( 'NONE', ( #89, #204, #381, #146 ) ) ;
#203 = PLANE ( 'NONE',  #38 ) ;
#204 = ORIENTED_EDGE ( 'NONE', *, *, #135, .T. ) ;
#205 = DIRECTION ( 'NONE',  ( 0.000000000000000000, 0.000000000000000000, 1.000000000000000000 ) ) ;
#206 = ORIENTED_EDGE ( 'NONE', *, *, #271, .T. ) ;
#207 = LINE ( 'NONE', #54, #357 ) ;
#208 = CARTESIAN_POINT ( 'NONE',  ( 6.500000000000004441, 4.265467371399393441E-15, 4.000000000000000000 ) ) ;
#209 = VERTEX_POINT ( 'NONE', #26 ) ;
#210 = FACE_OUTER_BOUND ( 'NONE', #53, .T. ) ;
#211 = MANIFOLD_SOLID_BREP ( 'Chamfer1', #347 ) ;
#212 = AXIS2_PLACEMENT_3D ( 'NONE', #73, #164, #160 ) ;
#213 = ORIENTED_EDGE ( 'NONE', *, *, #77, .T. ) ;
#214 = CARTESIAN_POINT ( 'NONE',  ( -17.50000000000000355, 20.00000000000000000, 4.000000000000000000 ) ) ;
#215 = ORIENTED_EDGE ( 'NONE', *, *, #125, .T. ) ;
#216 = CARTESIAN_POINT ( 'NONE',  ( -17.50000000000000355, 20.00000000000000000, 0.000000000000000000 ) ) ;
#217 = CIRCLE ( 'NONE', #18, 6.500000000000000888 ) ;
#218 = LINE ( 'NONE', #341, #75 ) ;
#219 = DIRECTION ( 'NONE',  ( 0.000000000000000000, -0.000000000000000000, 1.000000000000000000 ) ) ;
#220 = LINE ( 'NONE', #13, #165 ) ;
#221 = EDGE_CURVE ( 'NONE', #232, #274, #142, .T. ) ;
#222 = CARTESIAN_POINT ( 'NONE',  ( 17.49999999999999289, -20.00000000000000000, 4.000000000000000000 ) ) ;
#223 = CARTESIAN_POINT ( 'NONE',  ( 17.50000000000000355, 20.00000000000000000, 4.000000000000000000 ) ) ;
#224 = ORIENTED_EDGE ( 'NONE', *, *, #88, .T. ) ;
#225 = ADVANCED_FACE ( 'NONE', ( #325 ), #294, .F. ) ;
#226 = AXIS2_PLACEMENT_3D ( 'NONE', #112, #115, #138 ) ;
#227 = CARTESIAN_POINT ( 'NONE',  ( 17.50000000000000355, 20.00000000000000000, 0.000000000000000000 ) ) ;
#228 = DIRECTION ( 'NONE',  ( -0.000000000000000000, -1.000000000000000000, -0.000000000000000000 ) ) ;
#229 = ADVANCED_FACE ( 'NONE', ( #49 ), #256, .F. ) ;
#230 = ORIENTED_EDGE ( 'NONE', *, *, #248, .T. ) ;
#231 = DIRECTION ( 'NONE',  ( 0.000000000000000000, 0.000000000000000000, -1.000000000000000000 ) ) ;
#232 = VERTEX_POINT ( 'NONE', #227 ) ;
#233 = AXIS2_PLACEMENT_3D ( 'NONE', #181, #301, #94 ) ;
#234 = DIRECTION ( 'NONE',  ( -0.7071067811865455743, 0.7071067811865495711, 0.000000000000000000 ) ) ;
#235 = ORIENTED_EDGE ( 'NONE', *, *, #125, .F. ) ;
#236 = LINE ( 'NONE', #84, #137 ) ;
#237 = VERTEX_POINT ( 'NONE', #169 ) ;
#238 = FACE_OUTER_BOUND ( 'NONE', #113, .T. ) ;
#239 = VECTOR ( 'NONE', #145, 1000.000000000000000 ) ;
#240 = EDGE_LOOP ( 'NONE', ( #180, #376, #265, #74 ) ) ;
#241 = PLANE ( 'NONE',  #106 ) ;
#242 = ORIENTED_EDGE ( 'NONE', *, *, #162, .T. ) ;
#243 = CARTESIAN_POINT ( 'NONE',  ( 17.50000000000000355, 20.00000000000000000, 4.000000000000000000 ) ) ;
#244 = DIRECTION ( 'NONE',  ( 0.7071067811865455743, 0.7071067811865495711, 0.000000000000000000 ) ) ;
#245 = CARTESIAN_POINT ( 'NONE',  ( 17.50000000000000355, 20.00000000000000000, 4.000000000000000000 ) ) ;
#246 = CARTESIAN_POINT ( 'NONE',  ( -17.49999999999999289, -20.00000000000000000, 0.000000000000000000 ) ) ;
#247 = CARTESIAN_POINT ( 'NONE',  ( -18.74999999999994671, -18.75000000000004974, -0.000000000000000000 ) ) ;
#248 = EDGE_CURVE ( 'NONE', #175, #100, #21, .T. ) ;
#249 = ORIENTED_EDGE ( 'NONE', *, *, #42, .T. ) ;
#250 = VECTOR ( 'NONE', #86, 1000.000000000000000 ) ;
#251 = DIRECTION ( 'NONE',  ( 0.000000000000000000, 1.000000000000000000, 0.000000000000000000 ) ) ;
#252 = CARTESIAN_POINT ( 'NONE',  ( -20.00000000000000000, -20.00000000000000000, 4.000000000000000000 ) ) ;
#253 = EDGE_CURVE ( 'NONE', #97, #200, #90, .T. ) ;
#254 = EDGE_LOOP ( 'NONE', ( #268, #196, #116, #5 ) ) ;
#255 = ORIENTED_EDGE ( 'NONE', *, *, #351, .T. ) ;
#256 = CYLINDRICAL_SURFACE ( 'NONE', #343, 6.500000000000000888 ) ;
#257 = AXIS2_PLACEMENT_3D ( 'NONE', #35, #244, #276 ) ;
#258 = ADVANCED_FACE ( 'NONE', ( #238, #122 ), #241, .F. ) ;
#259 =( NAMED_UNIT ( * ) SI_UNIT ( $, .STERADIAN. ) SOLID_ANGLE_UNIT ( ) );
#260 =( NAMED_UNIT ( * ) PLANE_ANGLE_UNIT ( ) SI_UNIT ( $, .RADIAN. ) );
#261 = ORIENTED_EDGE ( 'NONE', *, *, #324, .F. ) ;
#262 = CARTESIAN_POINT ( 'NONE',  ( 3.469446951953614189E-15, 3.469446951953614189E-15, 4.000000000000000000 ) ) ;
#263 = LINE ( 'NONE', #208, #95 ) ;
#264 = FACE_OUTER_BOUND ( 'NONE', #286, .T. ) ;
#265 = ORIENTED_EDGE ( 'NONE', *, *, #390, .F. ) ;
#266 = DIRECTION ( 'NONE',  ( 0.7071067811865495711, -0.7071067811865455743, 0.000000000000000000 ) ) ;
#267 = VECTOR ( 'NONE', #334, 1000.000000000000114 ) ;
#268 = ORIENTED_EDGE ( 'NONE', *, *, #248, .F. ) ;
#269 = CARTESIAN_POINT ( 'NONE',  ( -20.00000000000000000, 20.00000000000000000, 0.000000000000000000 ) ) ;
#270 = EDGE_LOOP ( 'NONE', ( #58, #369 ) ) ;
#271 = EDGE_CURVE ( 'NONE', #237, #352, #275, .T. ) ;
#272 = EDGE_LOOP ( 'NONE', ( #119, #354, #338, #249 ) ) ;
#273 = LINE ( 'NONE', #339, #123 ) ;
#274 = VERTEX_POINT ( 'NONE', #4 ) ;
#275 = LINE ( 'NONE', #360, #130 ) ;
#276 = DIRECTION ( 'NONE',  ( 0.000000000000000000, 0.000000000000000000, -1.000000000000000000 ) ) ;
#277 = ADVANCED_FACE ( 'NONE', ( #210 ), #6, .F. ) ;
#278 = VECTOR ( 'NONE', #93, 1000.000000000000000 ) ;
#279 = CARTESIAN_POINT ( 'NONE',  ( 6.500000000000004441, 4.265467371399393441E-15, 0.000000000000000000 ) ) ;
#280 = PLANE ( 'NONE',  #257 ) ;
#281 = DIRECTION ( 'NONE',  ( 0.000000000000000000, 0.000000000000000000, 1.000000000000000000 ) ) ;
#282 = PLANE ( 'NONE',  #185 ) ;
#283 = PRODUCT_CONTEXT ( 'NONE', #150, 'mechanical' ) ;
#284 = SHAPE_DEFINITION_REPRESENTATION ( #134, #102 ) ;
#285 = AXIS2_PLACEMENT_3D ( 'NONE', #194, #127, #69 ) ;
#286 = EDGE_LOOP ( 'NONE', ( #329, #3, #29, #206, #141, #103, #303, #224 ) ) ;
#287 = EDGE_CURVE ( 'NONE', #363, #186, #207, .T. ) ;
#288 = CARTESIAN_POINT ( 'NONE',  ( 18.74999999999994671, -18.75000000000004974, -0.000000000000000000 ) ) ;
#289 = PRODUCT_DEFINITION_CONTEXT ( 'detailed design', #111, 'design' ) ;
#290 = VECTOR ( 'NONE', #382, 1000.000000000000000 ) ;
#291 = CARTESIAN_POINT ( 'NONE',  ( -20.00000000000000000, 17.49999999999999289, 4.000000000000000000 ) ) ;
#292 = VECTOR ( 'NONE', #281, 1000.000000000000000 ) ;
#293 = EDGE_CURVE ( 'NONE', #81, #148, #335, .T. ) ;
#294 = PLANE ( 'NONE',  #226 ) ;
#295 = LINE ( 'NONE', #108, #290 ) ;
#296 = ORIENTED_EDGE ( 'NONE', *, *, #166, .T. ) ;
#297 = CARTESIAN_POINT ( 'NONE',  ( 3.469446951953614189E-15, 3.469446951953614189E-15, 4.000000000000000000 ) ) ;
#298 = AXIS2_PLACEMENT_3D ( 'NONE', #302, #234, #358 ) ;
#299 = CARTESIAN_POINT ( 'NONE',  ( -6.499999999999997335, 3.469446951953614189E-15, 4.000000000000000000 ) ) ;
#300 = ORIENTED_EDGE ( 'NONE', *, *, #107, .F. ) ;
#301 = DIRECTION ( 'NONE',  ( 0.000000000000000000, 0.000000000000000000, 1.000000000000000000 ) ) ;
#302 = CARTESIAN_POINT ( 'NONE',  ( 20.00000000000000000, -17.50000000000000355, 4.000000000000000000 ) ) ;
#303 = ORIENTED_EDGE ( 'NONE', *, *, #46, .F. ) ;
#304 = CARTESIAN_POINT ( 'NONE',  ( 3.469446951953614189E-15, 3.469446951953614189E-15, 0.000000000000000000 ) ) ;
#305 = EDGE_CURVE ( 'NONE', #232, #352, #25, .T. ) ;
#306 = ORIENTED_EDGE ( 'NONE', *, *, #179, .F. ) ;
#307 = LINE ( 'NONE', #371, #161 ) ;
#308 = VECTOR ( 'NONE', #344, 1000.000000000000000 ) ;
#309 = VERTEX_POINT ( 'NONE', #214 ) ;
#310 = ADVANCED_FACE ( 'NONE', ( #337 ), #62, .F. ) ;
#311 = PLANE ( 'NONE',  #192 ) ;
#312 = DIRECTION ( 'NONE',  ( 0.000000000000000000, 0.000000000000000000, -1.000000000000000000 ) ) ;
#313 = VECTOR ( 'NONE', #251, 1000.000000000000000 ) ;
#314 = VERTEX_POINT ( 'NONE', #245 ) ;
#315 = FACE_OUTER_BOUND ( 'NONE', #202, .T. ) ;
#316 = AXIS2_PLACEMENT_3D ( 'NONE', #243, #388, #154 ) ;
#317 = CARTESIAN_POINT ( 'NONE',  ( -20.00000000000000000, -17.50000000000000355, 4.000000000000000000 ) ) ;
#318 = CARTESIAN_POINT ( 'NONE',  ( 20.00000000000000000, -20.00000000000000000, 0.000000000000000000 ) ) ;
#319 = CARTESIAN_POINT ( 'NONE',  ( -17.50000000000000355, 20.00000000000000000, 4.000000000000000000 ) ) ;
#320 = COLOUR_RGB ( '',0.7921568627450980005, 0.8196078431372548767, 0.9333333333333333481 ) ;
#321 = VECTOR ( 'NONE', #379, 1000.000000000000114 ) ;
#322 = DIRECTION ( 'NONE',  ( -1.000000000000000000, 0.000000000000000000, 0.000000000000000000 ) ) ;
#323 = LINE ( 'NONE', #47, #340 ) ;
#324 = EDGE_CURVE ( 'NONE', #200, #97, #60, .T. ) ;
#325 = FACE_OUTER_BOUND ( 'NONE', #83, .T. ) ;
#326 = FILL_AREA_STYLE ('',( #198 ) ) ;
#327 = ORIENTED_EDGE ( 'NONE', *, *, #361, .F. ) ;
#328 = CARTESIAN_POINT ( 'NONE',  ( -6.499999999999997335, 3.469446951953614189E-15, 4.000000000000000000 ) ) ;
#329 = ORIENTED_EDGE ( 'NONE', *, *, #19, .F. ) ;
#330 = DIRECTION ( 'NONE',  ( 0.000000000000000000, 0.000000000000000000, -1.000000000000000000 ) ) ;
#331 =( LENGTH_UNIT ( ) NAMED_UNIT ( * ) SI_UNIT ( .MILLI., .METRE. ) );
#332 = EDGE_CURVE ( 'NONE', #314, #309, #364, .T. ) ;
#333 = VERTEX_POINT ( 'NONE', #117 ) ;
#334 = DIRECTION ( 'NONE',  ( 0.7071067811865495711, 0.7071067811865455743, -0.000000000000000000 ) ) ;
#335 = CIRCLE ( 'NONE', #28, 6.500000000000000888 ) ;
#336 = ORIENTED_EDGE ( 'NONE', *, *, #221, .F. ) ;
#337 = FACE_OUTER_BOUND ( 'NONE', #110, .T. ) ;
#338 = ORIENTED_EDGE ( 'NONE', *, *, #19, .T. ) ;
#339 = CARTESIAN_POINT ( 'NONE',  ( -20.00000000000000000, -20.00000000000000000, 4.000000000000000000 ) ) ;
#340 = VECTOR ( 'NONE', #171, 1000.000000000000000 ) ;
#341 = CARTESIAN_POINT ( 'NONE',  ( -20.00000000000000000, 17.49999999999999289, 4.000000000000000000 ) ) ;
#342 = LINE ( 'NONE', #43, #368 ) ;
#343 = AXIS2_PLACEMENT_3D ( 'NONE', #262, #50, #322 ) ;
#344 = DIRECTION ( 'NONE',  ( 0.000000000000000000, 0.000000000000000000, 1.000000000000000000 ) ) ;
#345 = CARTESIAN_POINT ( 'NONE',  ( 17.49999999999999289, -20.00000000000000000, 0.000000000000000000 ) ) ;
#346 = PLANE ( 'NONE',  #76 ) ;
#347 = CLOSED_SHELL ( 'NONE', ( #37, #258, #199, #51, #225, #11, #380, #229, #2, #152, #277, #310 ) ) ;
#348 = DIRECTION ( 'NONE',  ( -1.000000000000000000, 0.000000000000000000, 0.000000000000000000 ) ) ;
#349 = EDGE_CURVE ( 'NONE', #209, #363, #307, .T. ) ;
#350 = LINE ( 'NONE', #39, #308 ) ;
#351 = EDGE_CURVE ( 'NONE', #186, #175, #273, .T. ) ;
#352 = VERTEX_POINT ( 'NONE', #216 ) ;
#353 = SURFACE_STYLE_FILL_AREA ( #326 ) ;
#354 = ORIENTED_EDGE ( 'NONE', *, *, #191, .T. ) ;
#355 = DIRECTION ( 'NONE',  ( -0.000000000000000000, -0.000000000000000000, -1.000000000000000000 ) ) ;
#356 = ORIENTED_EDGE ( 'NONE', *, *, #77, .F. ) ;
#357 = VECTOR ( 'NONE', #126, 1000.000000000000114 ) ;
#358 = DIRECTION ( 'NONE',  ( 0.000000000000000000, 0.000000000000000000, -1.000000000000000000 ) ) ;
#359 = ORIENTED_EDGE ( 'NONE', *, *, #305, .T. ) ;
#360 = CARTESIAN_POINT ( 'NONE',  ( -18.75000000000004974, 18.74999999999994671, -0.000000000000000000 ) ) ;
#361 = EDGE_CURVE ( 'NONE', #352, #309, #67, .T. ) ;
#362 = FACE_OUTER_BOUND ( 'NONE', #254, .T. ) ;
#363 = VERTEX_POINT ( 'NONE', #317 ) ;
#364 = LINE ( 'NONE', #393, #250 ) ;
#365 = VECTOR ( 'NONE', #193, 1000.000000000000114 ) ;
#366 = EDGE_LOOP ( 'NONE', ( #56, #17 ) ) ;
#367 = DIRECTION ( 'NONE',  ( 0.7071067811865455743, 0.7071067811865495711, -0.000000000000000000 ) ) ;
#368 = VECTOR ( 'NONE', #195, 1000.000000000000000 ) ;
#369 = ORIENTED_EDGE ( 'NONE', *, *, #253, .T. ) ;
#370 = EDGE_CURVE ( 'NONE', #183, #363, #342, .T. ) ;
#371 = CARTESIAN_POINT ( 'NONE',  ( -20.00000000000000000, -17.50000000000000355, 4.000000000000000000 ) ) ;
#372 = LINE ( 'NONE', #10, #278 ) ;
#373 = PRESENTATION_LAYER_ASSIGNMENT (  '', '', ( #87 ) ) ;
#374 = DIRECTION ( 'NONE',  ( -0.7071067811865455743, -0.7071067811865495711, -0.000000000000000000 ) ) ;
#375 =( LENGTH_UNIT ( ) NAMED_UNIT ( * ) SI_UNIT ( .MILLI., .METRE. ) );
#376 = ORIENTED_EDGE ( 'NONE', *, *, #349, .F. ) ;
#377 = CARTESIAN_POINT ( 'NONE',  ( -20.00000000000000000, 17.49999999999999289, 4.000000000000000000 ) ) ;
#378 = CARTESIAN_POINT ( 'NONE',  ( 20.00000000000000000, -17.50000000000000355, 4.000000000000000000 ) ) ;
#379 = DIRECTION ( 'NONE',  ( -0.7071067811865495711, 0.7071067811865455743, -0.000000000000000000 ) ) ;
#380 = ADVANCED_FACE ( 'NONE', ( #132 ), #346, .F. ) ;
#381 = ORIENTED_EDGE ( 'NONE', *, *, #46, .T. ) ;
#382 = DIRECTION ( 'NONE',  ( 0.000000000000000000, 0.000000000000000000, -1.000000000000000000 ) ) ;
#383 = PRODUCT_DEFINITION_FORMATION_WITH_SPECIFIED_SOURCE ( 'ANY', '', #8, .NOT_KNOWN. ) ;
#384 = CARTESIAN_POINT ( 'NONE',  ( 3.469446951953614189E-15, 3.469446951953614189E-15, 4.000000000000000000 ) ) ;
#385 = CARTESIAN_POINT ( 'NONE',  ( -17.49999999999999289, -20.00000000000000000, 4.000000000000000000 ) ) ;
#386 = LINE ( 'NONE', #140, #44 ) ;
#387 = ORIENTED_EDGE ( 'NONE', *, *, #107, .T. ) ;
#388 = DIRECTION ( 'NONE',  ( -0.7071067811865495711, -0.7071067811865455743, -0.000000000000000000 ) ) ;
#389 = AXIS2_PLACEMENT_3D ( 'NONE', #149, #266, #330 ) ;
#390 = EDGE_CURVE ( 'NONE', #63, #209, #188, .T. ) ;
#391 = SURFACE_SIDE_STYLE ('',( #353 ) ) ;
#392 = ORIENTED_EDGE ( 'NONE', *, *, #184, .F. ) ;
#393 = CARTESIAN_POINT ( 'NONE',  ( -20.00000000000000000, 20.00000000000000000, 4.000000000000000000 ) ) ;
ENDSEC;
END-ISO-10303-21;
