ISO-10303-21;
HEADER;
FILE_DESCRIPTION (( 'STEP AP214' ),
    '1' );
FILE_NAME ('1124723.STEP',
    '2026-03-11T08:58:01',
    ( '' ),
    ( '' ),
    'SwSTEP 2.0',
    'SolidWorks 2024',
    '' );
FILE_SCHEMA (( 'AUTOMOTIVE_DESIGN' ));
ENDSEC;

DATA;
#1 = EDGE_CURVE ( 'NONE', #222, #242, #11, .T. ) ;
#2 = LINE ( 'NONE', #61, #123 ) ;
#3 = ORIENTED_EDGE ( 'NONE', *, *, #236, .T. ) ;
#4 = AXIS2_PLACEMENT_3D ( 'NONE', #255, #204, #146 ) ;
#5 = EDGE_LOOP ( 'NONE', ( #96, #46 ) ) ;
#6 = EDGE_CURVE ( 'NONE', #50, #249, #72, .T. ) ;
#7 =( NAMED_UNIT ( * ) SI_UNIT ( $, .STERADIAN. ) SOLID_ANGLE_UNIT ( ) );
#8 = SURFACE_SIDE_STYLE ('',( #140 ) ) ;
#9 = VECTOR ( 'NONE', #90, 1000.000000000000000 ) ;
#10 = EDGE_CURVE ( 'NONE', #54, #139, #103, .T. ) ;
#11 = LINE ( 'NONE', #184, #9 ) ;
#12 = DIRECTION ( 'NONE',  ( 1.000000000000000000, 0.000000000000000000, 0.000000000000000000 ) ) ;
#13 = MECHANICAL_DESIGN_GEOMETRIC_PRESENTATION_REPRESENTATION (  '', ( #212 ), #89 ) ;
#14 = DIRECTION ( 'NONE',  ( 1.000000000000000000, 0.000000000000000000, 0.000000000000000000 ) ) ;
#15 = DIRECTION ( 'NONE',  ( -0.000000000000000000, -0.000000000000000000, -1.000000000000000000 ) ) ;
#16 = AXIS2_PLACEMENT_3D ( 'NONE', #260, #110, #81 ) ;
#17 = CYLINDRICAL_SURFACE ( 'NONE', #177, 6.500000000000000888 ) ;
#18 = DIRECTION ( 'NONE',  ( 0.000000000000000000, 0.000000000000000000, 1.000000000000000000 ) ) ;
#19 = ORIENTED_EDGE ( 'NONE', *, *, #230, .F. ) ;
#20 = DIRECTION ( 'NONE',  ( -0.000000000000000000, -0.000000000000000000, -1.000000000000000000 ) ) ;
#21 = ORIENTED_EDGE ( 'NONE', *, *, #1, .F. ) ;
#22 = EDGE_CURVE ( 'NONE', #242, #183, #147, .T. ) ;
#23 = DIRECTION ( 'NONE',  ( -0.000000000000000000, -0.000000000000000000, -1.000000000000000000 ) ) ;
#24 = APPLICATION_PROTOCOL_DEFINITION ( 'draft international standard', 'automotive_design', 1998, #201 ) ;
#25 = ORIENTED_EDGE ( 'NONE', *, *, #6, .T. ) ;
#26 =( NAMED_UNIT ( * ) SI_UNIT ( $, .STERADIAN. ) SOLID_ANGLE_UNIT ( ) );
#27 = AXIS2_PLACEMENT_3D ( 'NONE', #233, #213, #190 ) ;
#28 = LINE ( 'NONE', #105, #189 ) ;
#29 = EDGE_LOOP ( 'NONE', ( #228, #25, #229, #162 ) ) ;
#30 = DIRECTION ( 'NONE',  ( 1.000000000000000000, 0.000000000000000000, 0.000000000000000000 ) ) ;
#31 = CARTESIAN_POINT ( 'NONE',  ( 6.500000000000004441, 4.265467371399393441E-15, 4.000000000000000000 ) ) ;
#32 = ORIENTED_EDGE ( 'NONE', *, *, #141, .T. ) ;
#33 = CARTESIAN_POINT ( 'NONE',  ( 3.469446951953614189E-15, 3.469446951953614189E-15, 0.000000000000000000 ) ) ;
#34 = UNCERTAINTY_MEASURE_WITH_UNIT (LENGTH_MEASURE( 1.000000000000000082E-05 ), #51, 'distance_accuracy_value', 'NONE');
#35 = CARTESIAN_POINT ( 'NONE',  ( -20.00000000000000000, 20.00000000000000000, 4.000000000000000000 ) ) ;
#36 = ADVANCED_BREP_SHAPE_REPRESENTATION ( '1124723', ( #218, #45 ), #203 ) ;
#37 = FACE_OUTER_BOUND ( 'NONE', #182, .T. ) ;
#38 = ORIENTED_EDGE ( 'NONE', *, *, #205, .T. ) ;
#39 = AXIS2_PLACEMENT_3D ( 'NONE', #171, #83, #150 ) ;
#40 = FACE_OUTER_BOUND ( 'NONE', #29, .T. ) ;
#41 = ORIENTED_EDGE ( 'NONE', *, *, #1, .T. ) ;
#42 = FACE_OUTER_BOUND ( 'NONE', #195, .T. ) ;
#43 = ORIENTED_EDGE ( 'NONE', *, *, #209, .F. ) ;
#44 = DIRECTION ( 'NONE',  ( -0.000000000000000000, -0.000000000000000000, -1.000000000000000000 ) ) ;
#45 = AXIS2_PLACEMENT_3D ( 'NONE', #247, #202, #30 ) ;
#46 = ORIENTED_EDGE ( 'NONE', *, *, #6, .F. ) ;
#47 = APPLICATION_PROTOCOL_DEFINITION ( 'draft international standard', 'automotive_design', 1998, #224 ) ;
#48 = ORIENTED_EDGE ( 'NONE', *, *, #52, .T. ) ;
#49 = VECTOR ( 'NONE', #88, 1000.000000000000000 ) ;
#50 = VERTEX_POINT ( 'NONE', #31 ) ;
#51 =( LENGTH_UNIT ( ) NAMED_UNIT ( * ) SI_UNIT ( .MILLI., .METRE. ) );
#52 = EDGE_CURVE ( 'NONE', #222, #106, #143, .T. ) ;
#53 = CARTESIAN_POINT ( 'NONE',  ( 3.469446951953614189E-15, 3.469446951953614189E-15, 4.000000000000000000 ) ) ;
#54 = VERTEX_POINT ( 'NONE', #108 ) ;
#55 = COLOUR_RGB ( '',0.7921568627450980005, 0.8196078431372548767, 0.9333333333333333481 ) ;
#56 = EDGE_LOOP ( 'NONE', ( #254, #67, #164, #239 ) ) ;
#57 = ORIENTED_EDGE ( 'NONE', *, *, #209, .T. ) ;
#58 = EDGE_CURVE ( 'NONE', #50, #139, #128, .T. ) ;
#59 = VECTOR ( 'NONE', #206, 1000.000000000000000 ) ;
#60 = LINE ( 'NONE', #170, #181 ) ;
#61 = CARTESIAN_POINT ( 'NONE',  ( -20.00000000000000000, 20.00000000000000000, 0.000000000000000000 ) ) ;
#62 = PLANE ( 'NONE',  #27 ) ;
#63 = UNCERTAINTY_MEASURE_WITH_UNIT (LENGTH_MEASURE( 1.000000000000000082E-05 ), #69, 'distance_accuracy_value', 'NONE');
#64 = EDGE_LOOP ( 'NONE', ( #225, #235, #19, #32 ) ) ;
#65 = CLOSED_SHELL ( 'NONE', ( #91, #120, #251, #125, #180, #71, #136, #185 ) ) ;
#66 = DIRECTION ( 'NONE',  ( 1.000000000000000000, 0.000000000000000000, 0.000000000000000000 ) ) ;
#67 = ORIENTED_EDGE ( 'NONE', *, *, #58, .T. ) ;
#68 = CARTESIAN_POINT ( 'NONE',  ( 20.00000000000000000, -20.00000000000000000, 0.000000000000000000 ) ) ;
#69 =( LENGTH_UNIT ( ) NAMED_UNIT ( * ) SI_UNIT ( .MILLI., .METRE. ) );
#70 = EDGE_LOOP ( 'NONE', ( #124, #82, #57, #48 ) ) ;
#71 = ADVANCED_FACE ( 'NONE', ( #145 ), #252, .F. ) ;
#72 = CIRCLE ( 'NONE', #4, 6.500000000000000888 ) ;
#73 = CARTESIAN_POINT ( 'NONE',  ( -20.00000000000000000, -20.00000000000000000, 0.000000000000000000 ) ) ;
#74 = ORIENTED_EDGE ( 'NONE', *, *, #221, .F. ) ;
#75 = EDGE_CURVE ( 'NONE', #249, #50, #244, .T. ) ;
#76 = AXIS2_PLACEMENT_3D ( 'NONE', #187, #14, #93 ) ;
#77 = PLANE ( 'NONE',  #39 ) ;
#78 = PLANE ( 'NONE',  #16 ) ;
#79 = FACE_OUTER_BOUND ( 'NONE', #64, .T. ) ;
#80 = ORIENTED_EDGE ( 'NONE', *, *, #10, .T. ) ;
#81 = DIRECTION ( 'NONE',  ( 0.000000000000000000, -0.000000000000000000, -1.000000000000000000 ) ) ;
#82 = ORIENTED_EDGE ( 'NONE', *, *, #221, .T. ) ;
#83 = DIRECTION ( 'NONE',  ( -1.000000000000000000, 0.000000000000000000, 0.000000000000000000 ) ) ;
#84 = PRODUCT_CONTEXT ( 'NONE', #224, 'mechanical' ) ;
#85 = PRODUCT_RELATED_PRODUCT_CATEGORY ( 'part', '', ( #119 ) ) ;
#86 = PRODUCT_DEFINITION_FORMATION_WITH_SPECIFIED_SOURCE ( 'ANY', '', #119, .NOT_KNOWN. ) ;
#87 = PRESENTATION_STYLE_ASSIGNMENT (( #155 ) ) ;
#88 = DIRECTION ( 'NONE',  ( -0.000000000000000000, -1.000000000000000000, -0.000000000000000000 ) ) ;
#89 =( GEOMETRIC_REPRESENTATION_CONTEXT ( 3 ) GLOBAL_UNCERTAINTY_ASSIGNED_CONTEXT ( ( #34 ) ) GLOBAL_UNIT_ASSIGNED_CONTEXT ( ( #51, #178, #26 ) ) REPRESENTATION_CONTEXT ( 'NONE', 'WORKASPACE' ) );
#90 = DIRECTION ( 'NONE',  ( -0.000000000000000000, -0.000000000000000000, -1.000000000000000000 ) ) ;
#91 = ADVANCED_FACE ( 'NONE', ( #151 ), #153, .F. ) ;
#92 = VECTOR ( 'NONE', #23, 1000.000000000000000 ) ;
#93 = DIRECTION ( 'NONE',  ( 0.000000000000000000, 0.000000000000000000, -1.000000000000000000 ) ) ;
#94 = FILL_AREA_STYLE_COLOUR ( '', #55 ) ;
#95 = CARTESIAN_POINT ( 'NONE',  ( 3.469446951953614189E-15, 3.469446951953614189E-15, 4.000000000000000000 ) ) ;
#96 = ORIENTED_EDGE ( 'NONE', *, *, #75, .F. ) ;
#97 = CARTESIAN_POINT ( 'NONE',  ( 20.00000000000000000, -20.00000000000000000, 4.000000000000000000 ) ) ;
#98 = CARTESIAN_POINT ( 'NONE',  ( 20.00000000000000000, -20.00000000000000000, 4.000000000000000000 ) ) ;
#99 = ORIENTED_EDGE ( 'NONE', *, *, #22, .T. ) ;
#100 = FACE_OUTER_BOUND ( 'NONE', #70, .T. ) ;
#101 = DIRECTION ( 'NONE',  ( 0.000000000000000000, 1.000000000000000000, 0.000000000000000000 ) ) ;
#102 = SHAPE_DEFINITION_REPRESENTATION ( #165, #36 ) ;
#103 = CIRCLE ( 'NONE', #200, 6.500000000000000888 ) ;
#104 = LINE ( 'NONE', #245, #220 ) ;
#105 = CARTESIAN_POINT ( 'NONE',  ( -20.00000000000000000, 20.00000000000000000, 4.000000000000000000 ) ) ;
#106 = VERTEX_POINT ( 'NONE', #97 ) ;
#107 = EDGE_CURVE ( 'NONE', #116, #216, #148, .T. ) ;
#108 = CARTESIAN_POINT ( 'NONE',  ( -6.499999999999997335, 3.469446951953614189E-15, 0.000000000000000000 ) ) ;
#109 = DIRECTION ( 'NONE',  ( -0.000000000000000000, -0.000000000000000000, -1.000000000000000000 ) ) ;
#110 = DIRECTION ( 'NONE',  ( 0.000000000000000000, -1.000000000000000000, 0.000000000000000000 ) ) ;
#111 = PRODUCT_DEFINITION_CONTEXT ( 'detailed design', #201, 'design' ) ;
#112 = DIRECTION ( 'NONE',  ( -1.000000000000000000, 0.000000000000000000, -0.000000000000000000 ) ) ;
#113 = CARTESIAN_POINT ( 'NONE',  ( 3.469446951953614189E-15, 3.469446951953614189E-15, 0.000000000000000000 ) ) ;
#114 = EDGE_LOOP ( 'NONE', ( #250, #167, #154, #152 ) ) ;
#115 = DIRECTION ( 'NONE',  ( 1.000000000000000000, 0.000000000000000000, 0.000000000000000000 ) ) ;
#116 = VERTEX_POINT ( 'NONE', #217 ) ;
#117 = LINE ( 'NONE', #196, #92 ) ;
#118 = AXIS2_PLACEMENT_3D ( 'NONE', #243, #219, #223 ) ;
#119 = PRODUCT ( '1124723', '1124723', '', ( #84 ) ) ;
#120 = ADVANCED_FACE ( 'NONE', ( #100, #194 ), #134, .F. ) ;
#121 = EDGE_LOOP ( 'NONE', ( #3, #21, #43, #38 ) ) ;
#122 = DIRECTION ( 'NONE',  ( -1.000000000000000000, -0.000000000000000000, -0.000000000000000000 ) ) ;
#123 = VECTOR ( 'NONE', #210, 1000.000000000000000 ) ;
#124 = ORIENTED_EDGE ( 'NONE', *, *, #230, .T. ) ;
#125 = ADVANCED_FACE ( 'NONE', ( #79 ), #77, .F. ) ;
#126 = AXIS2_PLACEMENT_3D ( 'NONE', #113, #240, #66 ) ;
#127 = CARTESIAN_POINT ( 'NONE',  ( -20.00000000000000000, -20.00000000000000000, 4.000000000000000000 ) ) ;
#128 = LINE ( 'NONE', #208, #231 ) ;
#129 = DIRECTION ( 'NONE',  ( -0.000000000000000000, -1.000000000000000000, -0.000000000000000000 ) ) ;
#130 = LINE ( 'NONE', #172, #156 ) ;
#131 = CARTESIAN_POINT ( 'NONE',  ( 20.00000000000000000, 20.00000000000000000, 4.000000000000000000 ) ) ;
#132 = VECTOR ( 'NONE', #12, 1000.000000000000000 ) ;
#133 = VERTEX_POINT ( 'NONE', #215 ) ;
#134 = PLANE ( 'NONE',  #186 ) ;
#135 = DIRECTION ( 'NONE',  ( 0.000000000000000000, 0.000000000000000000, -1.000000000000000000 ) ) ;
#136 = ADVANCED_FACE ( 'NONE', ( #42 ), #62, .F. ) ;
#137 = CARTESIAN_POINT ( 'NONE',  ( -6.499999999999997335, 3.469446951953614189E-15, 4.000000000000000000 ) ) ;
#138 =( NAMED_UNIT ( * ) PLANE_ANGLE_UNIT ( ) SI_UNIT ( $, .RADIAN. ) );
#139 = VERTEX_POINT ( 'NONE', #259 ) ;
#140 = SURFACE_STYLE_FILL_AREA ( #192 ) ;
#141 = EDGE_CURVE ( 'NONE', #106, #183, #238, .T. ) ;
#142 = FACE_OUTER_BOUND ( 'NONE', #114, .T. ) ;
#143 = LINE ( 'NONE', #127, #132 ) ;
#144 = AXIS2_PLACEMENT_3D ( 'NONE', #53, #18, #115 ) ;
#145 = FACE_OUTER_BOUND ( 'NONE', #121, .T. ) ;
#146 = DIRECTION ( 'NONE',  ( 1.000000000000000000, 0.000000000000000000, 0.000000000000000000 ) ) ;
#147 = LINE ( 'NONE', #73, #59 ) ;
#148 = LINE ( 'NONE', #131, #253 ) ;
#149 = EDGE_CURVE ( 'NONE', #139, #54, #226, .T. ) ;
#150 = DIRECTION ( 'NONE',  ( 0.000000000000000000, 0.000000000000000000, 1.000000000000000000 ) ) ;
#151 = FACE_OUTER_BOUND ( 'NONE', #56, .T. ) ;
#152 = ORIENTED_EDGE ( 'NONE', *, *, #158, .F. ) ;
#153 = CYLINDRICAL_SURFACE ( 'NONE', #160, 6.500000000000000888 ) ;
#154 = ORIENTED_EDGE ( 'NONE', *, *, #236, .F. ) ;
#155 = SURFACE_STYLE_USAGE ( .BOTH. , #8 ) ;
#156 = VECTOR ( 'NONE', #15, 1000.000000000000000 ) ;
#157 = LINE ( 'NONE', #179, #168 ) ;
#158 = EDGE_CURVE ( 'NONE', #216, #133, #2, .T. ) ;
#159 = FACE_BOUND ( 'NONE', #256, .T. ) ;
#160 = AXIS2_PLACEMENT_3D ( 'NONE', #234, #20, #169 ) ;
#161 = EDGE_CURVE ( 'NONE', #249, #54, #130, .T. ) ;
#162 = ORIENTED_EDGE ( 'NONE', *, *, #149, .F. ) ;
#163 = VECTOR ( 'NONE', #211, 1000.000000000000000 ) ;
#164 = ORIENTED_EDGE ( 'NONE', *, *, #10, .F. ) ;
#165 = PRODUCT_DEFINITION_SHAPE ( 'NONE', 'NONE',  #176 ) ;
#166 = DIRECTION ( 'NONE',  ( 0.000000000000000000, 0.000000000000000000, 1.000000000000000000 ) ) ;
#167 = ORIENTED_EDGE ( 'NONE', *, *, #22, .F. ) ;
#168 = VECTOR ( 'NONE', #101, 1000.000000000000000 ) ;
#169 = DIRECTION ( 'NONE',  ( -1.000000000000000000, 0.000000000000000000, 0.000000000000000000 ) ) ;
#170 = CARTESIAN_POINT ( 'NONE',  ( -20.00000000000000000, -20.00000000000000000, 4.000000000000000000 ) ) ;
#171 = CARTESIAN_POINT ( 'NONE',  ( 20.00000000000000000, -20.00000000000000000, 4.000000000000000000 ) ) ;
#172 = CARTESIAN_POINT ( 'NONE',  ( -6.499999999999997335, 3.469446951953614189E-15, 4.000000000000000000 ) ) ;
#173 = ORIENTED_EDGE ( 'NONE', *, *, #107, .T. ) ;
#174 = DIRECTION ( 'NONE',  ( -0.000000000000000000, -0.000000000000000000, -1.000000000000000000 ) ) ;
#175 = PLANE ( 'NONE',  #118 ) ;
#176 = PRODUCT_DEFINITION ( 'UNKNOWN', '', #86, #111 ) ;
#177 = AXIS2_PLACEMENT_3D ( 'NONE', #95, #44, #232 ) ;
#178 =( NAMED_UNIT ( * ) PLANE_ANGLE_UNIT ( ) SI_UNIT ( $, .RADIAN. ) );
#179 = CARTESIAN_POINT ( 'NONE',  ( 20.00000000000000000, -20.00000000000000000, 0.000000000000000000 ) ) ;
#180 = ADVANCED_FACE ( 'NONE', ( #37 ), #78, .F. ) ;
#181 = VECTOR ( 'NONE', #129, 1000.000000000000000 ) ;
#182 = EDGE_LOOP ( 'NONE', ( #191, #248, #74, #173 ) ) ;
#183 = VERTEX_POINT ( 'NONE', #68 ) ;
#184 = CARTESIAN_POINT ( 'NONE',  ( -20.00000000000000000, -20.00000000000000000, 4.000000000000000000 ) ) ;
#185 = ADVANCED_FACE ( 'NONE', ( #40 ), #17, .F. ) ;
#186 = AXIS2_PLACEMENT_3D ( 'NONE', #257, #135, #112 ) ;
#187 = CARTESIAN_POINT ( 'NONE',  ( -20.00000000000000000, -20.00000000000000000, 4.000000000000000000 ) ) ;
#188 = CARTESIAN_POINT ( 'NONE',  ( 20.00000000000000000, 20.00000000000000000, 0.000000000000000000 ) ) ;
#189 = VECTOR ( 'NONE', #122, 1000.000000000000000 ) ;
#190 = DIRECTION ( 'NONE',  ( 0.000000000000000000, -0.000000000000000000, 1.000000000000000000 ) ) ;
#191 = ORIENTED_EDGE ( 'NONE', *, *, #158, .T. ) ;
#192 = FILL_AREA_STYLE ('',( #94 ) ) ;
#193 = ORIENTED_EDGE ( 'NONE', *, *, #149, .T. ) ;
#194 = FACE_BOUND ( 'NONE', #5, .T. ) ;
#195 = EDGE_LOOP ( 'NONE', ( #99, #246, #261, #41 ) ) ;
#196 = CARTESIAN_POINT ( 'NONE',  ( -20.00000000000000000, 20.00000000000000000, 4.000000000000000000 ) ) ;
#197 = CARTESIAN_POINT ( 'NONE',  ( -20.00000000000000000, -20.00000000000000000, 0.000000000000000000 ) ) ;
#198 = CARTESIAN_POINT ( 'NONE',  ( -20.00000000000000000, -20.00000000000000000, 0.000000000000000000 ) ) ;
#199 = DIRECTION ( 'NONE',  ( 0.000000000000000000, 1.000000000000000000, 0.000000000000000000 ) ) ;
#200 = AXIS2_PLACEMENT_3D ( 'NONE', #33, #166, #207 ) ;
#201 = APPLICATION_CONTEXT ( 'automotive_design' ) ;
#202 = DIRECTION ( 'NONE',  ( 0.000000000000000000, 0.000000000000000000, 1.000000000000000000 ) ) ;
#203 =( GEOMETRIC_REPRESENTATION_CONTEXT ( 3 ) GLOBAL_UNCERTAINTY_ASSIGNED_CONTEXT ( ( #63 ) ) GLOBAL_UNIT_ASSIGNED_CONTEXT ( ( #69, #138, #7 ) ) REPRESENTATION_CONTEXT ( 'NONE', 'WORKASPACE' ) );
#204 = DIRECTION ( 'NONE',  ( 0.000000000000000000, 0.000000000000000000, 1.000000000000000000 ) ) ;
#205 = EDGE_CURVE ( 'NONE', #214, #133, #117, .T. ) ;
#206 = DIRECTION ( 'NONE',  ( 1.000000000000000000, 0.000000000000000000, 0.000000000000000000 ) ) ;
#207 = DIRECTION ( 'NONE',  ( 1.000000000000000000, 0.000000000000000000, 0.000000000000000000 ) ) ;
#208 = CARTESIAN_POINT ( 'NONE',  ( 6.500000000000004441, 4.265467371399393441E-15, 4.000000000000000000 ) ) ;
#209 = EDGE_CURVE ( 'NONE', #214, #222, #60, .T. ) ;
#210 = DIRECTION ( 'NONE',  ( -1.000000000000000000, -0.000000000000000000, -0.000000000000000000 ) ) ;
#211 = DIRECTION ( 'NONE',  ( -0.000000000000000000, -0.000000000000000000, -1.000000000000000000 ) ) ;
#212 = STYLED_ITEM ( 'NONE', ( #87 ), #218 ) ;
#213 = DIRECTION ( 'NONE',  ( 0.000000000000000000, 1.000000000000000000, 0.000000000000000000 ) ) ;
#214 = VERTEX_POINT ( 'NONE', #35 ) ;
#215 = CARTESIAN_POINT ( 'NONE',  ( -20.00000000000000000, 20.00000000000000000, 0.000000000000000000 ) ) ;
#216 = VERTEX_POINT ( 'NONE', #188 ) ;
#217 = CARTESIAN_POINT ( 'NONE',  ( 20.00000000000000000, 20.00000000000000000, 4.000000000000000000 ) ) ;
#218 = MANIFOLD_SOLID_BREP ( 'Extrude1', #65 ) ;
#219 = DIRECTION ( 'NONE',  ( 0.000000000000000000, 0.000000000000000000, -1.000000000000000000 ) ) ;
#220 = VECTOR ( 'NONE', #199, 1000.000000000000000 ) ;
#221 = EDGE_CURVE ( 'NONE', #116, #214, #28, .T. ) ;
#222 = VERTEX_POINT ( 'NONE', #258 ) ;
#223 = DIRECTION ( 'NONE',  ( -1.000000000000000000, 0.000000000000000000, -0.000000000000000000 ) ) ;
#224 = APPLICATION_CONTEXT ( 'automotive_design' ) ;
#225 = ORIENTED_EDGE ( 'NONE', *, *, #227, .T. ) ;
#226 = CIRCLE ( 'NONE', #126, 6.500000000000000888 ) ;
#227 = EDGE_CURVE ( 'NONE', #183, #216, #157, .T. ) ;
#228 = ORIENTED_EDGE ( 'NONE', *, *, #58, .F. ) ;
#229 = ORIENTED_EDGE ( 'NONE', *, *, #161, .T. ) ;
#230 = EDGE_CURVE ( 'NONE', #106, #116, #104, .T. ) ;
#231 = VECTOR ( 'NONE', #109, 1000.000000000000000 ) ;
#232 = DIRECTION ( 'NONE',  ( -1.000000000000000000, 0.000000000000000000, 0.000000000000000000 ) ) ;
#233 = CARTESIAN_POINT ( 'NONE',  ( -20.00000000000000000, -20.00000000000000000, 4.000000000000000000 ) ) ;
#234 = CARTESIAN_POINT ( 'NONE',  ( 3.469446951953614189E-15, 3.469446951953614189E-15, 4.000000000000000000 ) ) ;
#235 = ORIENTED_EDGE ( 'NONE', *, *, #107, .F. ) ;
#236 = EDGE_CURVE ( 'NONE', #133, #242, #241, .T. ) ;
#237 = PRESENTATION_LAYER_ASSIGNMENT (  '', '', ( #212 ) ) ;
#238 = LINE ( 'NONE', #98, #163 ) ;
#239 = ORIENTED_EDGE ( 'NONE', *, *, #161, .F. ) ;
#240 = DIRECTION ( 'NONE',  ( 0.000000000000000000, 0.000000000000000000, 1.000000000000000000 ) ) ;
#241 = LINE ( 'NONE', #198, #49 ) ;
#242 = VERTEX_POINT ( 'NONE', #197 ) ;
#243 = CARTESIAN_POINT ( 'NONE',  ( 0.000000000000000000, 0.000000000000000000, 0.000000000000000000 ) ) ;
#244 = CIRCLE ( 'NONE', #144, 6.500000000000000888 ) ;
#245 = CARTESIAN_POINT ( 'NONE',  ( 20.00000000000000000, -20.00000000000000000, 4.000000000000000000 ) ) ;
#246 = ORIENTED_EDGE ( 'NONE', *, *, #141, .F. ) ;
#247 = CARTESIAN_POINT ( 'NONE',  ( 0.000000000000000000, 0.000000000000000000, 0.000000000000000000 ) ) ;
#248 = ORIENTED_EDGE ( 'NONE', *, *, #205, .F. ) ;
#249 = VERTEX_POINT ( 'NONE', #137 ) ;
#250 = ORIENTED_EDGE ( 'NONE', *, *, #227, .F. ) ;
#251 = ADVANCED_FACE ( 'NONE', ( #142, #159 ), #175, .T. ) ;
#252 = PLANE ( 'NONE',  #76 ) ;
#253 = VECTOR ( 'NONE', #174, 1000.000000000000000 ) ;
#254 = ORIENTED_EDGE ( 'NONE', *, *, #75, .T. ) ;
#255 = CARTESIAN_POINT ( 'NONE',  ( 3.469446951953614189E-15, 3.469446951953614189E-15, 4.000000000000000000 ) ) ;
#256 = EDGE_LOOP ( 'NONE', ( #80, #193 ) ) ;
#257 = CARTESIAN_POINT ( 'NONE',  ( 0.000000000000000000, 0.000000000000000000, 4.000000000000000000 ) ) ;
#258 = CARTESIAN_POINT ( 'NONE',  ( -20.00000000000000000, -20.00000000000000000, 4.000000000000000000 ) ) ;
#259 = CARTESIAN_POINT ( 'NONE',  ( 6.500000000000004441, 4.265467371399393441E-15, 0.000000000000000000 ) ) ;
#260 = CARTESIAN_POINT ( 'NONE',  ( -20.00000000000000000, 20.00000000000000000, 4.000000000000000000 ) ) ;
#261 = ORIENTED_EDGE ( 'NONE', *, *, #52, .F. ) ;
ENDSEC;
END-ISO-10303-21;
