ISO-10303-21;
HEADER;
FILE_DESCRIPTION (( 'STEP AP214' ),
    '1' );
FILE_NAME ('1124725.STEP',
    '2026-03-11T08:59:37',
    ( '' ),
    ( '' ),
    'SwSTEP 2.0',
    'SolidWorks 2024',
    '' );
FILE_SCHEMA (( 'AUTOMOTIVE_DESIGN' ));
ENDSEC;

DATA;
#1 = LINE ( 'NONE', #288, #242 ) ;
#2 = AXIS2_PLACEMENT_3D ( 'NONE', #218, #267, #319 ) ;
#3 =( NAMED_UNIT ( * ) SI_UNIT ( $, .STERADIAN. ) SOLID_ANGLE_UNIT ( ) );
#4 = CARTESIAN_POINT ( 'NONE',  ( -31.50000000000000000, 7.960204194457806324E-16, 0.000000000000000000 ) ) ;
#5 = CARTESIAN_POINT ( 'NONE',  ( 31.50000000000000711, 6.123233995736766085E-15, 0.000000000000000000 ) ) ;
#6 = DIRECTION ( 'NONE',  ( -0.000000000000000000, 1.000000000000000000, -0.000000000000000000 ) ) ;
#7 = AXIS2_PLACEMENT_3D ( 'NONE', #281, #21, #23 ) ;
#8 = UNCERTAINTY_MEASURE_WITH_UNIT (LENGTH_MEASURE( 1.000000000000000082E-05 ), #233, 'distance_accuracy_value', 'NONE');
#9 = LINE ( 'NONE', #261, #115 ) ;
#10 =( NAMED_UNIT ( * ) PLANE_ANGLE_UNIT ( ) SI_UNIT ( $, .RADIAN. ) );
#11 = EDGE_CURVE ( 'NONE', #204, #43, #304, .T. ) ;
#12 = VECTOR ( 'NONE', #55, 1000.000000000000000 ) ;
#13 = DIRECTION ( 'NONE',  ( -0.000000000000000000, -0.000000000000000000, 1.000000000000000000 ) ) ;
#14 = ORIENTED_EDGE ( 'NONE', *, *, #179, .F. ) ;
#15 = MECHANICAL_DESIGN_GEOMETRIC_PRESENTATION_REPRESENTATION (  '', ( #94 ), #148 ) ;
#16 = ORIENTED_EDGE ( 'NONE', *, *, #322, .F. ) ;
#17 = EDGE_LOOP ( 'NONE', ( #331, #263, #19, #151 ) ) ;
#18 = ADVANCED_FACE ( 'NONE', ( #255 ), #22, .T. ) ;
#19 = ORIENTED_EDGE ( 'NONE', *, *, #31, .T. ) ;
#20 = EDGE_LOOP ( 'NONE', ( #207, #51 ) ) ;
#21 = DIRECTION ( 'NONE',  ( 0.000000000000000000, 0.000000000000000000, 1.000000000000000000 ) ) ;
#22 = PLANE ( 'NONE',  #320 ) ;
#23 = DIRECTION ( 'NONE',  ( 1.000000000000000000, 0.000000000000000000, 0.000000000000000000 ) ) ;
#24 = ORIENTED_EDGE ( 'NONE', *, *, #153, .F. ) ;
#25 = FACE_OUTER_BOUND ( 'NONE', #80, .T. ) ;
#26 = FACE_BOUND ( 'NONE', #20, .T. ) ;
#27 = ORIENTED_EDGE ( 'NONE', *, *, #221, .F. ) ;
#28 = AXIS2_PLACEMENT_3D ( 'NONE', #294, #243, #64 ) ;
#29 = CARTESIAN_POINT ( 'NONE',  ( -50.00000000000000711, -19.99999999999999645, -4.000000000000000000 ) ) ;
#30 = DIRECTION ( 'NONE',  ( 0.000000000000000000, -1.000000000000000000, 0.000000000000000000 ) ) ;
#31 = EDGE_CURVE ( 'NONE', #154, #317, #194, .T. ) ;
#32 = CARTESIAN_POINT ( 'NONE',  ( -50.00000000000000711, 20.00000000000000355, 0.000000000000000000 ) ) ;
#33 = DIRECTION ( 'NONE',  ( 1.000000000000000000, 0.000000000000000000, 0.000000000000000000 ) ) ;
#34 = ORIENTED_EDGE ( 'NONE', *, *, #113, .F. ) ;
#35 = FACE_OUTER_BOUND ( 'NONE', #127, .T. ) ;
#36 = CARTESIAN_POINT ( 'NONE',  ( -50.00000000000000711, -19.99999999999999645, -4.000000000000000000 ) ) ;
#37 = LINE ( 'NONE', #139, #71 ) ;
#38 = AXIS2_PLACEMENT_3D ( 'NONE', #181, #30, #215 ) ;
#39 = ADVANCED_FACE ( 'NONE', ( #273 ), #45, .F. ) ;
#40 = CARTESIAN_POINT ( 'NONE',  ( 25.00000000000000355, 6.123233995736766085E-15, -4.000000000000000000 ) ) ;
#41 = ADVANCED_FACE ( 'NONE', ( #119 ), #324, .F. ) ;
#42 = AXIS2_PLACEMENT_3D ( 'NONE', #165, #59, #310 ) ;
#43 = VERTEX_POINT ( 'NONE', #69 ) ;
#44 = DIRECTION ( 'NONE',  ( -0.000000000000000000, -0.000000000000000000, 1.000000000000000000 ) ) ;
#45 = CYLINDRICAL_SURFACE ( 'NONE', #307, 6.500000000000005329 ) ;
#46 = COLOUR_RGB ( '',0.7921568627450980005, 0.8196078431372548767, 0.9333333333333333481 ) ;
#47 = ORIENTED_EDGE ( 'NONE', *, *, #322, .T. ) ;
#48 = MANIFOLD_SOLID_BREP ( 'Extrude1', #105 ) ;
#49 = ORIENTED_EDGE ( 'NONE', *, *, #205, .F. ) ;
#50 = ORIENTED_EDGE ( 'NONE', *, *, #205, .T. ) ;
#51 = ORIENTED_EDGE ( 'NONE', *, *, #230, .T. ) ;
#52 = ADVANCED_FACE ( 'NONE', ( #208 ), #250, .T. ) ;
#53 = CIRCLE ( 'NONE', #196, 6.500000000000005329 ) ;
#54 = ORIENTED_EDGE ( 'NONE', *, *, #153, .T. ) ;
#55 = DIRECTION ( 'NONE',  ( -0.000000000000000000, -0.000000000000000000, 1.000000000000000000 ) ) ;
#56 = ORIENTED_EDGE ( 'NONE', *, *, #91, .F. ) ;
#57 = CARTESIAN_POINT ( 'NONE',  ( -24.99999999999999645, 0.000000000000000000, -4.000000000000000000 ) ) ;
#58 = CARTESIAN_POINT ( 'NONE',  ( 49.99999999999999289, 20.00000000000000355, 0.000000000000000000 ) ) ;
#59 = DIRECTION ( 'NONE',  ( 0.000000000000000000, 1.000000000000000000, 0.000000000000000000 ) ) ;
#60 = DIRECTION ( 'NONE',  ( 1.000000000000000000, 0.000000000000000000, 0.000000000000000000 ) ) ;
#61 = VERTEX_POINT ( 'NONE', #335 ) ;
#62 = DIRECTION ( 'NONE',  ( 0.000000000000000000, 0.000000000000000000, 1.000000000000000000 ) ) ;
#63 = DIRECTION ( 'NONE',  ( -1.000000000000000000, -0.000000000000000000, -0.000000000000000000 ) ) ;
#64 = DIRECTION ( 'NONE',  ( 1.000000000000000000, 0.000000000000000000, 0.000000000000000000 ) ) ;
#65 = DIRECTION ( 'NONE',  ( 1.000000000000000000, 0.000000000000000000, 0.000000000000000000 ) ) ;
#66 = ADVANCED_FACE ( 'NONE', ( #26, #285, #157 ), #289, .F. ) ;
#67 = VECTOR ( 'NONE', #312, 1000.000000000000000 ) ;
#68 = DIRECTION ( 'NONE',  ( 1.000000000000000000, 0.000000000000000000, 0.000000000000000000 ) ) ;
#69 = CARTESIAN_POINT ( 'NONE',  ( -50.00000000000000711, -19.99999999999999645, 0.000000000000000000 ) ) ;
#70 = VERTEX_POINT ( 'NONE', #265 ) ;
#71 = VECTOR ( 'NONE', #258, 1000.000000000000000 ) ;
#72 = VERTEX_POINT ( 'NONE', #84 ) ;
#73 = DIRECTION ( 'NONE',  ( 0.000000000000000000, -1.000000000000000000, 0.000000000000000000 ) ) ;
#74 = VERTEX_POINT ( 'NONE', #126 ) ;
#75 = LINE ( 'NONE', #213, #234 ) ;
#76 = VECTOR ( 'NONE', #63, 1000.000000000000000 ) ;
#77 = LINE ( 'NONE', #183, #130 ) ;
#78 = DIRECTION ( 'NONE',  ( 0.000000000000000000, 0.000000000000000000, 1.000000000000000000 ) ) ;
#79 = EDGE_CURVE ( 'NONE', #125, #303, #211, .T. ) ;
#80 = EDGE_LOOP ( 'NONE', ( #123, #47, #329, #85 ) ) ;
#81 = FACE_OUTER_BOUND ( 'NONE', #150, .T. ) ;
#82 = CARTESIAN_POINT ( 'NONE',  ( 0.000000000000000000, 0.000000000000000000, 0.000000000000000000 ) ) ;
#83 = DIRECTION ( 'NONE',  ( 1.000000000000000000, 0.000000000000000000, 0.000000000000000000 ) ) ;
#84 = CARTESIAN_POINT ( 'NONE',  ( -18.49999999999999289, 0.000000000000000000, 0.000000000000000000 ) ) ;
#85 = ORIENTED_EDGE ( 'NONE', *, *, #254, .T. ) ;
#86 = DIRECTION ( 'NONE',  ( -0.000000000000000000, 0.000000000000000000, -1.000000000000000000 ) ) ;
#87 = PRODUCT_RELATED_PRODUCT_CATEGORY ( 'part', '', ( #268 ) ) ;
#88 = PRODUCT_DEFINITION_CONTEXT ( 'detailed design', #177, 'design' ) ;
#89 = CARTESIAN_POINT ( 'NONE',  ( -18.49999999999999289, 0.000000000000000000, -4.000000000000000000 ) ) ;
#90 = AXIS2_PLACEMENT_3D ( 'NONE', #155, #164, #315 ) ;
#91 = EDGE_CURVE ( 'NONE', #162, #226, #191, .T. ) ;
#92 = APPLICATION_CONTEXT ( 'automotive_design' ) ;
#93 = ORIENTED_EDGE ( 'NONE', *, *, #230, .F. ) ;
#94 = STYLED_ITEM ( 'NONE', ( #278 ), #48 ) ;
#95 = ORIENTED_EDGE ( 'NONE', *, *, #221, .T. ) ;
#96 = VERTEX_POINT ( 'NONE', #262 ) ;
#97 = EDGE_CURVE ( 'NONE', #223, #125, #138, .T. ) ;
#98 = SURFACE_STYLE_FILL_AREA ( #326 ) ;
#99 = ORIENTED_EDGE ( 'NONE', *, *, #128, .F. ) ;
#100 = AXIS2_PLACEMENT_3D ( 'NONE', #203, #149, #68 ) ;
#101 = ORIENTED_EDGE ( 'NONE', *, *, #97, .F. ) ;
#102 = CARTESIAN_POINT ( 'NONE',  ( -24.99999999999999645, 0.000000000000000000, 0.000000000000000000 ) ) ;
#103 = VERTEX_POINT ( 'NONE', #36 ) ;
#104 = DIRECTION ( 'NONE',  ( -0.000000000000000000, -0.000000000000000000, 1.000000000000000000 ) ) ;
#105 = CLOSED_SHELL ( 'NONE', ( #334, #41, #238, #52, #18, #248, #66, #161, #321, #39 ) ) ;
#106 = ORIENTED_EDGE ( 'NONE', *, *, #79, .F. ) ;
#107 = DIRECTION ( 'NONE',  ( 1.000000000000000000, 0.000000000000000000, -0.000000000000000000 ) ) ;
#108 = DIRECTION ( 'NONE',  ( 0.000000000000000000, 0.000000000000000000, 1.000000000000000000 ) ) ;
#109 = EDGE_CURVE ( 'NONE', #223, #72, #308, .T. ) ;
#110 = DIRECTION ( 'NONE',  ( 0.000000000000000000, 0.000000000000000000, 1.000000000000000000 ) ) ;
#111 = CARTESIAN_POINT ( 'NONE',  ( -31.50000000000000000, 7.960204194457806324E-16, -4.000000000000000000 ) ) ;
#112 = CYLINDRICAL_SURFACE ( 'NONE', #202, 6.500000000000002665 ) ;
#113 = EDGE_CURVE ( 'NONE', #72, #303, #53, .T. ) ;
#114 = ORIENTED_EDGE ( 'NONE', *, *, #31, .F. ) ;
#115 = VECTOR ( 'NONE', #140, 1000.000000000000000 ) ;
#116 = DIRECTION ( 'NONE',  ( 0.000000000000000000, 0.000000000000000000, 1.000000000000000000 ) ) ;
#117 = PLANE ( 'NONE',  #188 ) ;
#118 = CIRCLE ( 'NONE', #277, 6.500000000000005329 ) ;
#119 = FACE_OUTER_BOUND ( 'NONE', #17, .T. ) ;
#120 = DIRECTION ( 'NONE',  ( 0.000000000000000000, 0.000000000000000000, 1.000000000000000000 ) ) ;
#121 = VERTEX_POINT ( 'NONE', #132 ) ;
#122 = CARTESIAN_POINT ( 'NONE',  ( -24.99999999999999645, 0.000000000000000000, -4.000000000000000000 ) ) ;
#123 = ORIENTED_EDGE ( 'NONE', *, *, #179, .T. ) ;
#124 = DIRECTION ( 'NONE',  ( -1.000000000000000000, 0.000000000000000000, 0.000000000000000000 ) ) ;
#125 = VERTEX_POINT ( 'NONE', #111 ) ;
#126 = CARTESIAN_POINT ( 'NONE',  ( 49.99999999999999289, -19.99999999999999645, -4.000000000000000000 ) ) ;
#127 = EDGE_LOOP ( 'NONE', ( #93, #275, #217, #247 ) ) ;
#128 = EDGE_CURVE ( 'NONE', #103, #74, #75, .T. ) ;
#129 = CARTESIAN_POINT ( 'NONE',  ( 49.99999999999999289, 20.00000000000000355, -4.000000000000000000 ) ) ;
#130 = VECTOR ( 'NONE', #286, 1000.000000000000000 ) ;
#131 = DIRECTION ( 'NONE',  ( 0.000000000000000000, 0.000000000000000000, 1.000000000000000000 ) ) ;
#132 = CARTESIAN_POINT ( 'NONE',  ( 31.50000000000000711, 6.123233995736766085E-15, -4.000000000000000000 ) ) ;
#133 = LINE ( 'NONE', #29, #260 ) ;
#134 = DIRECTION ( 'NONE',  ( 1.000000000000000000, 0.000000000000000000, 0.000000000000000000 ) ) ;
#135 = ORIENTED_EDGE ( 'NONE', *, *, #201, .F. ) ;
#136 = CYLINDRICAL_SURFACE ( 'NONE', #272, 6.500000000000005329 ) ;
#137 = CARTESIAN_POINT ( 'NONE',  ( -18.49999999999999289, 0.000000000000000000, -4.000000000000000000 ) ) ;
#138 = CIRCLE ( 'NONE', #158, 6.500000000000005329 ) ;
#139 = CARTESIAN_POINT ( 'NONE',  ( -50.00000000000000711, 20.00000000000000355, -4.000000000000000000 ) ) ;
#140 = DIRECTION ( 'NONE',  ( 0.000000000000000000, 0.000000000000000000, 1.000000000000000000 ) ) ;
#141 = ORIENTED_EDGE ( 'NONE', *, *, #274, .T. ) ;
#142 = CIRCLE ( 'NONE', #2, 6.500000000000002665 ) ;
#143 = EDGE_CURVE ( 'NONE', #121, #317, #160, .T. ) ;
#144 = CARTESIAN_POINT ( 'NONE',  ( -24.99999999999999645, 0.000000000000000000, -4.000000000000000000 ) ) ;
#145 = DIRECTION ( 'NONE',  ( 1.000000000000000000, 0.000000000000000000, 0.000000000000000000 ) ) ;
#146 = APPLICATION_PROTOCOL_DEFINITION ( 'draft international standard', 'automotive_design', 1998, #92 ) ;
#147 = EDGE_LOOP ( 'NONE', ( #34, #176 ) ) ;
#148 =( GEOMETRIC_REPRESENTATION_CONTEXT ( 3 ) GLOBAL_UNCERTAINTY_ASSIGNED_CONTEXT ( ( #8 ) ) GLOBAL_UNIT_ASSIGNED_CONTEXT ( ( #233, #332, #3 ) ) REPRESENTATION_CONTEXT ( 'NONE', 'WORKASPACE' ) );
#149 = DIRECTION ( 'NONE',  ( 0.000000000000000000, 0.000000000000000000, 1.000000000000000000 ) ) ;
#150 = EDGE_LOOP ( 'NONE', ( #271, #280, #198, #50 ) ) ;
#151 = ORIENTED_EDGE ( 'NONE', *, *, #143, .F. ) ;
#152 = LINE ( 'NONE', #129, #316 ) ;
#153 = EDGE_CURVE ( 'NONE', #162, #61, #152, .T. ) ;
#154 = VERTEX_POINT ( 'NONE', #256 ) ;
#155 = CARTESIAN_POINT ( 'NONE',  ( 0.000000000000000000, 0.000000000000000000, -4.000000000000000000 ) ) ;
#156 = CARTESIAN_POINT ( 'NONE',  ( 49.99999999999999289, 20.00000000000000355, -4.000000000000000000 ) ) ;
#157 = FACE_OUTER_BOUND ( 'NONE', #173, .T. ) ;
#158 = AXIS2_PLACEMENT_3D ( 'NONE', #57, #78, #134 ) ;
#159 = CARTESIAN_POINT ( 'NONE',  ( 49.99999999999999289, 20.00000000000000355, -4.000000000000000000 ) ) ;
#160 = LINE ( 'NONE', #306, #12 ) ;
#161 = ADVANCED_FACE ( 'NONE', ( #184, #287, #25 ), #237, .T. ) ;
#162 = VERTEX_POINT ( 'NONE', #240 ) ;
#163 = LINE ( 'NONE', #190, #245 ) ;
#164 = DIRECTION ( 'NONE',  ( -0.000000000000000000, 0.000000000000000000, 1.000000000000000000 ) ) ;
#165 = CARTESIAN_POINT ( 'NONE',  ( -50.00000000000000711, 20.00000000000000355, -4.000000000000000000 ) ) ;
#166 = AXIS2_PLACEMENT_3D ( 'NONE', #82, #187, #33 ) ;
#167 = CARTESIAN_POINT ( 'NONE',  ( -24.99999999999999645, 0.000000000000000000, -4.000000000000000000 ) ) ;
#168 = ORIENTED_EDGE ( 'NONE', *, *, #274, .F. ) ;
#169 = EDGE_CURVE ( 'NONE', #121, #96, #290, .T. ) ;
#170 = CARTESIAN_POINT ( 'NONE',  ( -50.00000000000000711, 20.00000000000000355, 0.000000000000000000 ) ) ;
#171 = EDGE_LOOP ( 'NONE', ( #49, #114 ) ) ;
#172 = CIRCLE ( 'NONE', #28, 6.500000000000005329 ) ;
#173 = EDGE_LOOP ( 'NONE', ( #246, #99, #311, #56 ) ) ;
#174 = PRODUCT_DEFINITION ( 'UNKNOWN', '', #189, #88 ) ;
#175 = ORIENTED_EDGE ( 'NONE', *, *, #266, .T. ) ;
#176 = ORIENTED_EDGE ( 'NONE', *, *, #259, .F. ) ;
#177 = APPLICATION_CONTEXT ( 'automotive_design' ) ;
#178 = EDGE_LOOP ( 'NONE', ( #14, #135, #251, #54 ) ) ;
#179 = EDGE_CURVE ( 'NONE', #70, #61, #186, .T. ) ;
#180 = VECTOR ( 'NONE', #73, 1000.000000000000000 ) ;
#181 = CARTESIAN_POINT ( 'NONE',  ( -50.00000000000000711, -19.99999999999999645, -4.000000000000000000 ) ) ;
#182 = PRODUCT_DEFINITION_SHAPE ( 'NONE', 'NONE',  #174 ) ;
#183 = CARTESIAN_POINT ( 'NONE',  ( -50.00000000000000711, -19.99999999999999645, 0.000000000000000000 ) ) ;
#184 = FACE_BOUND ( 'NONE', #147, .T. ) ;
#185 = EDGE_CURVE ( 'NONE', #96, #121, #142, .T. ) ;
#186 = LINE ( 'NONE', #58, #296 ) ;
#187 = DIRECTION ( 'NONE',  ( -0.000000000000000000, 0.000000000000000000, 1.000000000000000000 ) ) ;
#188 = AXIS2_PLACEMENT_3D ( 'NONE', #156, #107, #86 ) ;
#189 = PRODUCT_DEFINITION_FORMATION_WITH_SPECIFIED_SOURCE ( 'ANY', '', #268, .NOT_KNOWN. ) ;
#190 = CARTESIAN_POINT ( 'NONE',  ( -50.00000000000000711, 20.00000000000000355, 0.000000000000000000 ) ) ;
#191 = LINE ( 'NONE', #293, #76 ) ;
#192 = FACE_OUTER_BOUND ( 'NONE', #252, .T. ) ;
#193 = DIRECTION ( 'NONE',  ( 1.000000000000000000, 0.000000000000000000, 0.000000000000000000 ) ) ;
#194 = CIRCLE ( 'NONE', #100, 6.500000000000002665 ) ;
#195 = AXIS2_PLACEMENT_3D ( 'NONE', #295, #116, #65 ) ;
#196 = AXIS2_PLACEMENT_3D ( 'NONE', #102, #257, #60 ) ;
#197 = ORIENTED_EDGE ( 'NONE', *, *, #128, .T. ) ;
#198 = ORIENTED_EDGE ( 'NONE', *, *, #143, .T. ) ;
#199 = CARTESIAN_POINT ( 'NONE',  ( 25.00000000000000355, 6.123233995736766085E-15, -4.000000000000000000 ) ) ;
#200 = SURFACE_SIDE_STYLE ('',( #98 ) ) ;
#201 = EDGE_CURVE ( 'NONE', #74, #70, #9, .T. ) ;
#202 = AXIS2_PLACEMENT_3D ( 'NONE', #214, #314, #83 ) ;
#203 = CARTESIAN_POINT ( 'NONE',  ( 25.00000000000000355, 6.123233995736766085E-15, 0.000000000000000000 ) ) ;
#204 = VERTEX_POINT ( 'NONE', #32 ) ;
#205 = EDGE_CURVE ( 'NONE', #317, #154, #328, .T. ) ;
#206 = DIRECTION ( 'NONE',  ( 1.000000000000000000, 0.000000000000000000, 0.000000000000000000 ) ) ;
#207 = ORIENTED_EDGE ( 'NONE', *, *, #97, .T. ) ;
#208 = FACE_OUTER_BOUND ( 'NONE', #253, .T. ) ;
#209 = VECTOR ( 'NONE', #232, 1000.000000000000000 ) ;
#210 = PLANE ( 'NONE',  #42 ) ;
#211 = LINE ( 'NONE', #313, #224 ) ;
#212 = CARTESIAN_POINT ( 'NONE',  ( 18.50000000000000000, 6.919254415182546126E-15, -4.000000000000000000 ) ) ;
#213 = CARTESIAN_POINT ( 'NONE',  ( -50.00000000000000711, -19.99999999999999645, -4.000000000000000000 ) ) ;
#214 = CARTESIAN_POINT ( 'NONE',  ( 25.00000000000000355, 6.123233995736766085E-15, -4.000000000000000000 ) ) ;
#215 = DIRECTION ( 'NONE',  ( 0.000000000000000000, -0.000000000000000000, -1.000000000000000000 ) ) ;
#216 = VECTOR ( 'NONE', #236, 1000.000000000000000 ) ;
#217 = ORIENTED_EDGE ( 'NONE', *, *, #259, .T. ) ;
#218 = CARTESIAN_POINT ( 'NONE',  ( 25.00000000000000355, 6.123233995736766085E-15, -4.000000000000000000 ) ) ;
#219 = UNCERTAINTY_MEASURE_WITH_UNIT (LENGTH_MEASURE( 1.000000000000000082E-05 ), #244, 'distance_accuracy_value', 'NONE');
#220 = DIRECTION ( 'NONE',  ( 1.000000000000000000, 0.000000000000000000, 0.000000000000000000 ) ) ;
#221 = EDGE_CURVE ( 'NONE', #226, #204, #1, .T. ) ;
#222 = DIRECTION ( 'NONE',  ( 1.000000000000000000, 0.000000000000000000, 0.000000000000000000 ) ) ;
#223 = VERTEX_POINT ( 'NONE', #89 ) ;
#224 = VECTOR ( 'NONE', #104, 1000.000000000000000 ) ;
#225 = EDGE_LOOP ( 'NONE', ( #231, #27, #175, #141 ) ) ;
#226 = VERTEX_POINT ( 'NONE', #241 ) ;
#227 = SHAPE_DEFINITION_REPRESENTATION ( #182, #284 ) ;
#228 = DIRECTION ( 'NONE',  ( -0.000000000000000000, -0.000000000000000000, 1.000000000000000000 ) ) ;
#229 = ORIENTED_EDGE ( 'NONE', *, *, #91, .T. ) ;
#230 = EDGE_CURVE ( 'NONE', #125, #223, #118, .T. ) ;
#231 = ORIENTED_EDGE ( 'NONE', *, *, #11, .F. ) ;
#232 = DIRECTION ( 'NONE',  ( -0.000000000000000000, -0.000000000000000000, 1.000000000000000000 ) ) ;
#233 =( LENGTH_UNIT ( ) NAMED_UNIT ( * ) SI_UNIT ( .MILLI., .METRE. ) );
#234 = VECTOR ( 'NONE', #206, 1000.000000000000000 ) ;
#235 = ORIENTED_EDGE ( 'NONE', *, *, #169, .T. ) ;
#236 = DIRECTION ( 'NONE',  ( -0.000000000000000000, 1.000000000000000000, -0.000000000000000000 ) ) ;
#237 = PLANE ( 'NONE',  #166 ) ;
#238 = ADVANCED_FACE ( 'NONE', ( #318 ), #117, .T. ) ;
#239 = LINE ( 'NONE', #212, #67 ) ;
#240 = CARTESIAN_POINT ( 'NONE',  ( 49.99999999999999289, 20.00000000000000355, -4.000000000000000000 ) ) ;
#241 = CARTESIAN_POINT ( 'NONE',  ( -50.00000000000000711, 20.00000000000000355, -4.000000000000000000 ) ) ;
#242 = VECTOR ( 'NONE', #110, 1000.000000000000000 ) ;
#243 = DIRECTION ( 'NONE',  ( 0.000000000000000000, 0.000000000000000000, 1.000000000000000000 ) ) ;
#244 =( LENGTH_UNIT ( ) NAMED_UNIT ( * ) SI_UNIT ( .MILLI., .METRE. ) );
#245 = VECTOR ( 'NONE', #292, 1000.000000000000000 ) ;
#246 = ORIENTED_EDGE ( 'NONE', *, *, #279, .F. ) ;
#247 = ORIENTED_EDGE ( 'NONE', *, *, #109, .F. ) ;
#248 = ADVANCED_FACE ( 'NONE', ( #192 ), #210, .T. ) ;
#249 = AXIS2_PLACEMENT_3D ( 'NONE', #40, #270, #220 ) ;
#250 = PLANE ( 'NONE',  #38 ) ;
#251 = ORIENTED_EDGE ( 'NONE', *, *, #279, .T. ) ;
#252 = EDGE_LOOP ( 'NONE', ( #16, #24, #229, #95 ) ) ;
#253 = EDGE_LOOP ( 'NONE', ( #283, #168, #197, #323 ) ) ;
#254 = EDGE_CURVE ( 'NONE', #43, #70, #77, .T. ) ;
#255 = FACE_OUTER_BOUND ( 'NONE', #225, .T. ) ;
#256 = CARTESIAN_POINT ( 'NONE',  ( 18.50000000000000000, 6.919254415182546126E-15, 0.000000000000000000 ) ) ;
#257 = DIRECTION ( 'NONE',  ( 0.000000000000000000, 0.000000000000000000, 1.000000000000000000 ) ) ;
#258 = DIRECTION ( 'NONE',  ( 0.000000000000000000, -1.000000000000000000, 0.000000000000000000 ) ) ;
#259 = EDGE_CURVE ( 'NONE', #303, #72, #172, .T. ) ;
#260 = VECTOR ( 'NONE', #131, 1000.000000000000000 ) ;
#261 = CARTESIAN_POINT ( 'NONE',  ( 49.99999999999999289, -19.99999999999999645, -4.000000000000000000 ) ) ;
#262 = CARTESIAN_POINT ( 'NONE',  ( 18.50000000000000000, 6.919254415182546126E-15, -4.000000000000000000 ) ) ;
#263 = ORIENTED_EDGE ( 'NONE', *, *, #309, .T. ) ;
#264 = LINE ( 'NONE', #159, #216 ) ;
#265 = CARTESIAN_POINT ( 'NONE',  ( 49.99999999999999289, -19.99999999999999645, 0.000000000000000000 ) ) ;
#266 = EDGE_CURVE ( 'NONE', #226, #103, #37, .T. ) ;
#267 = DIRECTION ( 'NONE',  ( 0.000000000000000000, 0.000000000000000000, 1.000000000000000000 ) ) ;
#268 = PRODUCT ( '1124725', '1124725', '', ( #327 ) ) ;
#269 = AXIS2_PLACEMENT_3D ( 'NONE', #199, #228, #300 ) ;
#270 = DIRECTION ( 'NONE',  ( 0.000000000000000000, 0.000000000000000000, 1.000000000000000000 ) ) ;
#271 = ORIENTED_EDGE ( 'NONE', *, *, #309, .F. ) ;
#272 = AXIS2_PLACEMENT_3D ( 'NONE', #144, #13, #222 ) ;
#273 = FACE_OUTER_BOUND ( 'NONE', #333, .T. ) ;
#274 = EDGE_CURVE ( 'NONE', #103, #43, #133, .T. ) ;
#275 = ORIENTED_EDGE ( 'NONE', *, *, #79, .T. ) ;
#276 =( NAMED_UNIT ( * ) SI_UNIT ( $, .STERADIAN. ) SOLID_ANGLE_UNIT ( ) );
#277 = AXIS2_PLACEMENT_3D ( 'NONE', #167, #62, #193 ) ;
#278 = PRESENTATION_STYLE_ASSIGNMENT (( #301 ) ) ;
#279 = EDGE_CURVE ( 'NONE', #74, #162, #264, .T. ) ;
#280 = ORIENTED_EDGE ( 'NONE', *, *, #169, .F. ) ;
#281 = CARTESIAN_POINT ( 'NONE',  ( 0.000000000000000000, 0.000000000000000000, 0.000000000000000000 ) ) ;
#282 = ORIENTED_EDGE ( 'NONE', *, *, #113, .T. ) ;
#283 = ORIENTED_EDGE ( 'NONE', *, *, #254, .F. ) ;
#284 = ADVANCED_BREP_SHAPE_REPRESENTATION ( '1124725', ( #48, #7 ), #297 ) ;
#285 = FACE_BOUND ( 'NONE', #291, .T. ) ;
#286 = DIRECTION ( 'NONE',  ( 1.000000000000000000, 0.000000000000000000, 0.000000000000000000 ) ) ;
#287 = FACE_BOUND ( 'NONE', #171, .T. ) ;
#288 = CARTESIAN_POINT ( 'NONE',  ( -50.00000000000000711, 20.00000000000000355, -4.000000000000000000 ) ) ;
#289 = PLANE ( 'NONE',  #90 ) ;
#290 = CIRCLE ( 'NONE', #249, 6.500000000000002665 ) ;
#291 = EDGE_LOOP ( 'NONE', ( #235, #305 ) ) ;
#292 = DIRECTION ( 'NONE',  ( -1.000000000000000000, -0.000000000000000000, -0.000000000000000000 ) ) ;
#293 = CARTESIAN_POINT ( 'NONE',  ( -50.00000000000000711, 20.00000000000000355, -4.000000000000000000 ) ) ;
#294 = CARTESIAN_POINT ( 'NONE',  ( -24.99999999999999645, 0.000000000000000000, 0.000000000000000000 ) ) ;
#295 = CARTESIAN_POINT ( 'NONE',  ( 25.00000000000000355, 6.123233995736766085E-15, 0.000000000000000000 ) ) ;
#296 = VECTOR ( 'NONE', #6, 1000.000000000000000 ) ;
#297 =( GEOMETRIC_REPRESENTATION_CONTEXT ( 3 ) GLOBAL_UNCERTAINTY_ASSIGNED_CONTEXT ( ( #219 ) ) GLOBAL_UNIT_ASSIGNED_CONTEXT ( ( #244, #10, #276 ) ) REPRESENTATION_CONTEXT ( 'NONE', 'WORKASPACE' ) );
#298 = CARTESIAN_POINT ( 'NONE',  ( -50.00000000000000711, 20.00000000000000355, -4.000000000000000000 ) ) ;
#299 = ORIENTED_EDGE ( 'NONE', *, *, #109, .T. ) ;
#300 = DIRECTION ( 'NONE',  ( 1.000000000000000000, 0.000000000000000000, 0.000000000000000000 ) ) ;
#301 = SURFACE_STYLE_USAGE ( .BOTH. , #200 ) ;
#302 = PRESENTATION_LAYER_ASSIGNMENT (  '', '', ( #94 ) ) ;
#303 = VERTEX_POINT ( 'NONE', #4 ) ;
#304 = LINE ( 'NONE', #170, #180 ) ;
#305 = ORIENTED_EDGE ( 'NONE', *, *, #185, .T. ) ;
#306 = CARTESIAN_POINT ( 'NONE',  ( 31.50000000000000711, 6.123233995736766085E-15, -4.000000000000000000 ) ) ;
#307 = AXIS2_PLACEMENT_3D ( 'NONE', #122, #44, #145 ) ;
#308 = LINE ( 'NONE', #137, #209 ) ;
#309 = EDGE_CURVE ( 'NONE', #96, #154, #239, .T. ) ;
#310 = DIRECTION ( 'NONE',  ( 0.000000000000000000, -0.000000000000000000, 1.000000000000000000 ) ) ;
#311 = ORIENTED_EDGE ( 'NONE', *, *, #266, .F. ) ;
#312 = DIRECTION ( 'NONE',  ( -0.000000000000000000, -0.000000000000000000, 1.000000000000000000 ) ) ;
#313 = CARTESIAN_POINT ( 'NONE',  ( -31.50000000000000000, 7.960204194457802379E-16, -4.000000000000000000 ) ) ;
#314 = DIRECTION ( 'NONE',  ( -0.000000000000000000, -0.000000000000000000, 1.000000000000000000 ) ) ;
#315 = DIRECTION ( 'NONE',  ( 1.000000000000000000, 0.000000000000000000, 0.000000000000000000 ) ) ;
#316 = VECTOR ( 'NONE', #108, 1000.000000000000000 ) ;
#317 = VERTEX_POINT ( 'NONE', #5 ) ;
#318 = FACE_OUTER_BOUND ( 'NONE', #178, .T. ) ;
#319 = DIRECTION ( 'NONE',  ( 1.000000000000000000, 0.000000000000000000, 0.000000000000000000 ) ) ;
#320 = AXIS2_PLACEMENT_3D ( 'NONE', #298, #124, #120 ) ;
#321 = ADVANCED_FACE ( 'NONE', ( #81 ), #112, .F. ) ;
#322 = EDGE_CURVE ( 'NONE', #61, #204, #163, .T. ) ;
#323 = ORIENTED_EDGE ( 'NONE', *, *, #201, .T. ) ;
#324 = CYLINDRICAL_SURFACE ( 'NONE', #269, 6.500000000000002665 ) ;
#325 = FILL_AREA_STYLE_COLOUR ( '', #46 ) ;
#326 = FILL_AREA_STYLE ('',( #325 ) ) ;
#327 = PRODUCT_CONTEXT ( 'NONE', #92, 'mechanical' ) ;
#328 = CIRCLE ( 'NONE', #195, 6.500000000000002665 ) ;
#329 = ORIENTED_EDGE ( 'NONE', *, *, #11, .T. ) ;
#330 = APPLICATION_PROTOCOL_DEFINITION ( 'draft international standard', 'automotive_design', 1998, #177 ) ;
#331 = ORIENTED_EDGE ( 'NONE', *, *, #185, .F. ) ;
#332 =( NAMED_UNIT ( * ) PLANE_ANGLE_UNIT ( ) SI_UNIT ( $, .RADIAN. ) );
#333 = EDGE_LOOP ( 'NONE', ( #106, #101, #299, #282 ) ) ;
#334 = ADVANCED_FACE ( 'NONE', ( #35 ), #136, .F. ) ;
#335 = CARTESIAN_POINT ( 'NONE',  ( 49.99999999999999289, 20.00000000000000355, 0.000000000000000000 ) ) ;
ENDSEC;
END-ISO-10303-21;
