ISO-10303-21;
HEADER;
FILE_DESCRIPTION (( 'STEP AP214' ),
    '1' );
FILE_NAME ('1147080.STEP',
    '2026-03-11T09:32:49',
    ( '' ),
    ( '' ),
    'SwSTEP 2.0',
    'SolidWorks 2024',
    '' );
FILE_SCHEMA (( 'AUTOMOTIVE_DESIGN' ));
ENDSEC;

DATA;
#1 = EDGE_CURVE ( 'NONE', #186, #125, #147, .T. ) ;
#2 = EDGE_CURVE ( 'NONE', #186, #58, #165, .T. ) ;
#3 = EDGE_LOOP ( 'NONE', ( #7, #245, #227, #87 ) ) ;
#4 = CARTESIAN_POINT ( 'NONE',  ( -13.91348772099910569, 5.000000000000000000, -12.40000000000000391 ) ) ;
#5 = VERTEX_POINT ( 'NONE', #127 ) ;
#6 = CARTESIAN_POINT ( 'NONE',  ( 0.000000000000000000, 0.000000000000000000, 0.000000000000000000 ) ) ;
#7 = ORIENTED_EDGE ( 'NONE', *, *, #117, .T. ) ;
#8 = ORIENTED_EDGE ( 'NONE', *, *, #26, .T. ) ;
#9 = PLANE ( 'NONE',  #112 ) ;
#10 = AXIS2_PLACEMENT_3D ( 'NONE', #130, #193, #11 ) ;
#11 = DIRECTION ( 'NONE',  ( -0.3907311284892746039, 0.000000000000000000, -0.9205048534524400417 ) ) ;
#12 = DIRECTION ( 'NONE',  ( -0.000000000000000000, -1.000000000000000000, -0.000000000000000000 ) ) ;
#13 = LINE ( 'NONE', #256, #167 ) ;
#14 = UNCERTAINTY_MEASURE_WITH_UNIT (LENGTH_MEASURE( 1.000000000000000082E-05 ), #200, 'distance_accuracy_value', 'NONE');
#15 = LINE ( 'NONE', #128, #103 ) ;
#16 = DIRECTION ( 'NONE',  ( -0.000000000000000000, 1.000000000000000000, -0.000000000000000000 ) ) ;
#17 = DIRECTION ( 'NONE',  ( 0.000000000000000000, 0.000000000000000000, 1.000000000000000000 ) ) ;
#18 = EDGE_CURVE ( 'NONE', #244, #186, #101, .T. ) ;
#19 = CARTESIAN_POINT ( 'NONE',  ( 3.386512279000890135, 0.000000000000000000, -12.40000000000000391 ) ) ;
#20 = LINE ( 'NONE', #113, #31 ) ;
#21 = ADVANCED_FACE ( 'NONE', ( #228, #45 ), #9, .T. ) ;
#22 = CARTESIAN_POINT ( 'NONE',  ( -13.91348772099910569, 5.000000000000000000, -12.40000000000000391 ) ) ;
#23 = ORIENTED_EDGE ( 'NONE', *, *, #187, .T. ) ;
#24 = ORIENTED_EDGE ( 'NONE', *, *, #83, .F. ) ;
#25 = DIRECTION ( 'NONE',  ( -0.000000000000000000, -1.000000000000000000, -0.000000000000000000 ) ) ;
#26 = EDGE_CURVE ( 'NONE', #5, #86, #51, .T. ) ;
#27 = EDGE_LOOP ( 'NONE', ( #64, #102, #41, #145 ) ) ;
#28 = EDGE_LOOP ( 'NONE', ( #169, #209 ) ) ;
#29 = CARTESIAN_POINT ( 'NONE',  ( -13.91348772099910569, 0.000000000000000000, -12.40000000000000391 ) ) ;
#30 = DIRECTION ( 'NONE',  ( 0.000000000000000000, 0.000000000000000000, -1.000000000000000000 ) ) ;
#31 = VECTOR ( 'NONE', #198, 1000.000000000000000 ) ;
#32 = PLANE ( 'NONE',  #73 ) ;
#33 = DIRECTION ( 'NONE',  ( 0.000000000000000000, -0.000000000000000000, 1.000000000000000000 ) ) ;
#34 = LINE ( 'NONE', #216, #162 ) ;
#35 = CARTESIAN_POINT ( 'NONE',  ( -3.386512279000882586, 0.000000000000000000, 12.39999999999999680 ) ) ;
#36 = FACE_BOUND ( 'NONE', #188, .T. ) ;
#37 = EDGE_CURVE ( 'NONE', #62, #170, #260, .T. ) ;
#38 = ADVANCED_FACE ( 'NONE', ( #110 ), #32, .F. ) ;
#39 = CYLINDRICAL_SURFACE ( 'NONE', #173, 3.399999999999996803 ) ;
#40 = ORIENTED_EDGE ( 'NONE', *, *, #108, .F. ) ;
#41 = ORIENTED_EDGE ( 'NONE', *, *, #71, .T. ) ;
#42 = APPLICATION_CONTEXT ( 'automotive_design' ) ;
#43 = VERTEX_POINT ( 'NONE', #48 ) ;
#44 = EDGE_CURVE ( 'NONE', #125, #62, #218, .T. ) ;
#45 = FACE_OUTER_BOUND ( 'NONE', #27, .T. ) ;
#46 = CARTESIAN_POINT ( 'NONE',  ( -13.91348772099910569, 5.000000000000000000, -12.40000000000000391 ) ) ;
#47 = CIRCLE ( 'NONE', #197, 3.399999999999996803 ) ;
#48 = CARTESIAN_POINT ( 'NONE',  ( 3.386512279000890135, 0.000000000000000000, -12.40000000000000391 ) ) ;
#49 = DIRECTION ( 'NONE',  ( 0.000000000000000000, 1.000000000000000000, 0.000000000000000000 ) ) ;
#50 = DIRECTION ( 'NONE',  ( -0.000000000000000000, 1.000000000000000000, -0.000000000000000000 ) ) ;
#51 = CIRCLE ( 'NONE', #246, 3.399999999999996803 ) ;
#52 = DIRECTION ( 'NONE',  ( 0.000000000000000000, 1.000000000000000000, 0.000000000000000000 ) ) ;
#53 = CYLINDRICAL_SURFACE ( 'NONE', #250, 3.399999999999996803 ) ;
#54 = APPLICATION_PROTOCOL_DEFINITION ( 'draft international standard', 'automotive_design', 1998, #42 ) ;
#55 = EDGE_CURVE ( 'NONE', #125, #213, #13, .T. ) ;
#56 = VECTOR ( 'NONE', #25, 1000.000000000000000 ) ;
#57 = FACE_OUTER_BOUND ( 'NONE', #82, .T. ) ;
#58 = VERTEX_POINT ( 'NONE', #88 ) ;
#59 = DIRECTION ( 'NONE',  ( 0.000000000000000000, 1.000000000000000000, 0.000000000000000000 ) ) ;
#60 = PRODUCT_DEFINITION_CONTEXT ( 'detailed design', #42, 'design' ) ;
#61 = MECHANICAL_DESIGN_GEOMETRIC_PRESENTATION_REPRESENTATION (  '', ( #144 ), #135 ) ;
#62 = VERTEX_POINT ( 'NONE', #215 ) ;
#63 = ADVANCED_FACE ( 'NONE', ( #255 ), #72, .F. ) ;
#64 = ORIENTED_EDGE ( 'NONE', *, *, #1, .T. ) ;
#65 = AXIS2_PLACEMENT_3D ( 'NONE', #116, #17, #79 ) ;
#66 = ORIENTED_EDGE ( 'NONE', *, *, #108, .T. ) ;
#67 = EDGE_LOOP ( 'NONE', ( #23, #97, #143, #160 ) ) ;
#68 = VERTEX_POINT ( 'NONE', #69 ) ;
#69 = CARTESIAN_POINT ( 'NONE',  ( 0.000000000000000000, 5.000000000000000000, 3.399999999999996803 ) ) ;
#70 = FACE_OUTER_BOUND ( 'NONE', #221, .T. ) ;
#71 = EDGE_CURVE ( 'NONE', #62, #244, #15, .T. ) ;
#72 = PLANE ( 'NONE',  #202 ) ;
#73 = AXIS2_PLACEMENT_3D ( 'NONE', #133, #195, #196 ) ;
#74 = LINE ( 'NONE', #29, #104 ) ;
#75 = CARTESIAN_POINT ( 'NONE',  ( 0.000000000000000000, 0.000000000000000000, 3.399999999999996803 ) ) ;
#76 = EDGE_CURVE ( 'NONE', #86, #68, #194, .T. ) ;
#77 = CARTESIAN_POINT ( 'NONE',  ( 3.386512279000890135, 5.000000000000000000, -12.40000000000000391 ) ) ;
#78 = CIRCLE ( 'NONE', #118, 3.399999999999996803 ) ;
#79 = DIRECTION ( 'NONE',  ( 1.000000000000000000, 0.000000000000000000, -0.000000000000000000 ) ) ;
#80 = DIRECTION ( 'NONE',  ( 1.000000000000000000, 0.000000000000000000, 0.000000000000000000 ) ) ;
#81 = DIRECTION ( 'NONE',  ( -0.3907311284892747150, -0.000000000000000000, -0.9205048534524399306 ) ) ;
#82 = EDGE_LOOP ( 'NONE', ( #126, #185, #249, #248 ) ) ;
#83 = EDGE_CURVE ( 'NONE', #43, #58, #34, .T. ) ;
#84 = DIRECTION ( 'NONE',  ( 0.3907311284892746039, 0.000000000000000000, 0.9205048534524400417 ) ) ;
#85 = CARTESIAN_POINT ( 'NONE',  ( -13.91348772099910569, 5.000000000000000000, -12.40000000000000391 ) ) ;
#86 = VERTEX_POINT ( 'NONE', #75 ) ;
#87 = ORIENTED_EDGE ( 'NONE', *, *, #2, .T. ) ;
#88 = CARTESIAN_POINT ( 'NONE',  ( -13.91348772099910569, 0.000000000000000000, -12.40000000000000391 ) ) ;
#89 = PRODUCT_CONTEXT ( 'NONE', #205, 'mechanical' ) ;
#90 = PRODUCT ( '1147080', '1147080', '', ( #89 ) ) ;
#91 = DIRECTION ( 'NONE',  ( 1.000000000000000000, 0.000000000000000000, 0.000000000000000000 ) ) ;
#92 = EDGE_CURVE ( 'NONE', #244, #43, #154, .T. ) ;
#93 = DIRECTION ( 'NONE',  ( 0.000000000000000000, 0.000000000000000000, 1.000000000000000000 ) ) ;
#94 = CARTESIAN_POINT ( 'NONE',  ( 0.000000000000000000, 5.000000000000000000, 3.399999999999996803 ) ) ;
#95 = DIRECTION ( 'NONE',  ( -0.3907311284892747150, -0.000000000000000000, -0.9205048534524399306 ) ) ;
#96 = CARTESIAN_POINT ( 'NONE',  ( 0.000000000000000000, 5.000000000000000000, 0.000000000000000000 ) ) ;
#97 = ORIENTED_EDGE ( 'NONE', *, *, #37, .F. ) ;
#98 = SURFACE_SIDE_STYLE ('',( #224 ) ) ;
#99 = ORIENTED_EDGE ( 'NONE', *, *, #76, .T. ) ;
#100 = EDGE_LOOP ( 'NONE', ( #181, #24, #148, #206 ) ) ;
#101 = LINE ( 'NONE', #85, #189 ) ;
#102 = ORIENTED_EDGE ( 'NONE', *, *, #44, .T. ) ;
#103 = VECTOR ( 'NONE', #95, 1000.000000000000114 ) ;
#104 = VECTOR ( 'NONE', #106, 1000.000000000000000 ) ;
#105 = ORIENTED_EDGE ( 'NONE', *, *, #37, .T. ) ;
#106 = DIRECTION ( 'NONE',  ( 0.3907311284892746039, 0.000000000000000000, 0.9205048534524400417 ) ) ;
#107 = DIRECTION ( 'NONE',  ( 0.000000000000000000, 0.000000000000000000, 1.000000000000000000 ) ) ;
#108 = EDGE_CURVE ( 'NONE', #86, #5, #78, .T. ) ;
#109 = CARTESIAN_POINT ( 'NONE',  ( -3.386512279000882586, 5.000000000000000000, 12.39999999999999680 ) ) ;
#110 = FACE_OUTER_BOUND ( 'NONE', #122, .T. ) ;
#111 = DIRECTION ( 'NONE',  ( 0.000000000000000000, 1.000000000000000000, 0.000000000000000000 ) ) ;
#112 = AXIS2_PLACEMENT_3D ( 'NONE', #217, #111, #33 ) ;
#113 = CARTESIAN_POINT ( 'NONE',  ( 4.163799117100997108E-16, 5.000000000000000000, -3.399999999999996803 ) ) ;
#114 = ADVANCED_BREP_SHAPE_REPRESENTATION ( '1147080', ( #166, #178 ), #208 ) ;
#115 = DIRECTION ( 'NONE',  ( 0.000000000000000000, -0.000000000000000000, 1.000000000000000000 ) ) ;
#116 = CARTESIAN_POINT ( 'NONE',  ( -13.91348772099910569, 5.000000000000000000, -12.40000000000000391 ) ) ;
#117 = EDGE_CURVE ( 'NONE', #58, #213, #74, .T. ) ;
#118 = AXIS2_PLACEMENT_3D ( 'NONE', #258, #52, #132 ) ;
#119 =( NAMED_UNIT ( * ) PLANE_ANGLE_UNIT ( ) SI_UNIT ( $, .RADIAN. ) );
#120 = CARTESIAN_POINT ( 'NONE',  ( -3.386512279000882586, 0.000000000000000000, 12.39999999999999680 ) ) ;
#121 = EDGE_CURVE ( 'NONE', #68, #146, #47, .T. ) ;
#122 = EDGE_LOOP ( 'NONE', ( #164, #190, #124, #105 ) ) ;
#123 = CIRCLE ( 'NONE', #157, 3.399999999999996803 ) ;
#124 = ORIENTED_EDGE ( 'NONE', *, *, #71, .F. ) ;
#125 = VERTEX_POINT ( 'NONE', #109 ) ;
#126 = ORIENTED_EDGE ( 'NONE', *, *, #26, .F. ) ;
#127 = CARTESIAN_POINT ( 'NONE',  ( 4.163799117100997108E-16, 0.000000000000000000, -3.399999999999996803 ) ) ;
#128 = CARTESIAN_POINT ( 'NONE',  ( 3.386512279000890135, 5.000000000000000000, -12.40000000000000391 ) ) ;
#129 = ADVANCED_FACE ( 'NONE', ( #231 ), #238, .F. ) ;
#130 = CARTESIAN_POINT ( 'NONE',  ( -13.91348772099910569, 5.000000000000000000, -12.40000000000000391 ) ) ;
#131 = DIRECTION ( 'NONE',  ( -1.000000000000000000, 0.000000000000000000, -0.000000000000000000 ) ) ;
#132 = DIRECTION ( 'NONE',  ( 0.000000000000000000, 0.000000000000000000, 1.000000000000000000 ) ) ;
#133 = CARTESIAN_POINT ( 'NONE',  ( 3.386512279000890135, 5.000000000000000000, -12.40000000000000391 ) ) ;
#134 =( NAMED_UNIT ( * ) PLANE_ANGLE_UNIT ( ) SI_UNIT ( $, .RADIAN. ) );
#135 =( GEOMETRIC_REPRESENTATION_CONTEXT ( 3 ) GLOBAL_UNCERTAINTY_ASSIGNED_CONTEXT ( ( #14 ) ) GLOBAL_UNIT_ASSIGNED_CONTEXT ( ( #200, #134, #222 ) ) REPRESENTATION_CONTEXT ( 'NONE', 'WORKASPACE' ) );
#136 = CARTESIAN_POINT ( 'NONE',  ( 0.000000000000000000, 0.000000000000000000, 0.000000000000000000 ) ) ;
#137 = PRESENTATION_STYLE_ASSIGNMENT (( #180 ) ) ;
#138 = PRODUCT_DEFINITION ( 'UNKNOWN', '', #140, #60 ) ;
#139 = DIRECTION ( 'NONE',  ( 0.000000000000000000, 0.000000000000000000, 1.000000000000000000 ) ) ;
#140 = PRODUCT_DEFINITION_FORMATION_WITH_SPECIFIED_SOURCE ( 'ANY', '', #90, .NOT_KNOWN. ) ;
#141 =( LENGTH_UNIT ( ) NAMED_UNIT ( * ) SI_UNIT ( .MILLI., .METRE. ) );
#142 = ADVANCED_FACE ( 'NONE', ( #70 ), #53, .F. ) ;
#143 = ORIENTED_EDGE ( 'NONE', *, *, #44, .F. ) ;
#144 = STYLED_ITEM ( 'NONE', ( #137 ), #166 ) ;
#145 = ORIENTED_EDGE ( 'NONE', *, *, #18, .T. ) ;
#146 = VERTEX_POINT ( 'NONE', #175 ) ;
#147 = LINE ( 'NONE', #4, #149 ) ;
#148 = ORIENTED_EDGE ( 'NONE', *, *, #158, .F. ) ;
#149 = VECTOR ( 'NONE', #84, 1000.000000000000000 ) ;
#150 = DIRECTION ( 'NONE',  ( -0.000000000000000000, 1.000000000000000000, -0.000000000000000000 ) ) ;
#151 = CARTESIAN_POINT ( 'NONE',  ( 0.000000000000000000, 5.000000000000000000, 0.000000000000000000 ) ) ;
#152 = CARTESIAN_POINT ( 'NONE',  ( 3.386512279000890135, 5.000000000000000000, -12.40000000000000391 ) ) ;
#153 = VECTOR ( 'NONE', #230, 1000.000000000000000 ) ;
#154 = LINE ( 'NONE', #152, #223 ) ;
#155 = APPLICATION_PROTOCOL_DEFINITION ( 'draft international standard', 'automotive_design', 1998, #205 ) ;
#156 = FACE_OUTER_BOUND ( 'NONE', #100, .T. ) ;
#157 = AXIS2_PLACEMENT_3D ( 'NONE', #96, #161, #139 ) ;
#158 = EDGE_CURVE ( 'NONE', #170, #43, #219, .T. ) ;
#159 = CARTESIAN_POINT ( 'NONE',  ( 13.91348772099911635, 0.000000000000000000, 12.39999999999999680 ) ) ;
#160 = ORIENTED_EDGE ( 'NONE', *, *, #55, .T. ) ;
#161 = DIRECTION ( 'NONE',  ( -0.000000000000000000, 1.000000000000000000, -0.000000000000000000 ) ) ;
#162 = VECTOR ( 'NONE', #179, 1000.000000000000000 ) ;
#163 = DIRECTION ( 'NONE',  ( 1.000000000000000000, 0.000000000000000000, 0.000000000000000000 ) ) ;
#164 = ORIENTED_EDGE ( 'NONE', *, *, #158, .T. ) ;
#165 = LINE ( 'NONE', #46, #56 ) ;
#166 = MANIFOLD_SOLID_BREP ( 'M8 Tapped Hole1', #257 ) ;
#167 = VECTOR ( 'NONE', #12, 1000.000000000000000 ) ;
#168 = DIRECTION ( 'NONE',  ( -1.000000000000000000, -0.000000000000000000, -0.000000000000000000 ) ) ;
#169 = ORIENTED_EDGE ( 'NONE', *, *, #121, .F. ) ;
#170 = VERTEX_POINT ( 'NONE', #159 ) ;
#171 = ADVANCED_FACE ( 'NONE', ( #57 ), #39, .F. ) ;
#172 = CARTESIAN_POINT ( 'NONE',  ( -3.386512279000882586, 5.000000000000000000, 12.39999999999999680 ) ) ;
#173 = AXIS2_PLACEMENT_3D ( 'NONE', #239, #16, #261 ) ;
#174 = DIRECTION ( 'NONE',  ( 0.000000000000000000, 0.000000000000000000, 1.000000000000000000 ) ) ;
#175 = CARTESIAN_POINT ( 'NONE',  ( 4.163799117100997108E-16, 5.000000000000000000, -3.399999999999996803 ) ) ;
#176 = DIRECTION ( 'NONE',  ( -0.000000000000000000, 1.000000000000000000, -0.000000000000000000 ) ) ;
#177 = PRESENTATION_LAYER_ASSIGNMENT (  '', '', ( #144 ) ) ;
#178 = AXIS2_PLACEMENT_3D ( 'NONE', #6, #212, #163 ) ;
#179 = DIRECTION ( 'NONE',  ( -1.000000000000000000, -0.000000000000000000, -0.000000000000000000 ) ) ;
#180 = SURFACE_STYLE_USAGE ( .BOTH. , #98 ) ;
#181 = ORIENTED_EDGE ( 'NONE', *, *, #117, .F. ) ;
#182 = AXIS2_PLACEMENT_3D ( 'NONE', #136, #59, #115 ) ;
#183 = FILL_AREA_STYLE_COLOUR ( '', #259 ) ;
#184 =( NAMED_UNIT ( * ) SI_UNIT ( $, .STERADIAN. ) SOLID_ANGLE_UNIT ( ) );
#185 = ORIENTED_EDGE ( 'NONE', *, *, #235, .T. ) ;
#186 = VERTEX_POINT ( 'NONE', #22 ) ;
#187 = EDGE_CURVE ( 'NONE', #213, #170, #203, .T. ) ;
#188 = EDGE_LOOP ( 'NONE', ( #66, #8 ) ) ;
#189 = VECTOR ( 'NONE', #168, 1000.000000000000000 ) ;
#190 = ORIENTED_EDGE ( 'NONE', *, *, #92, .F. ) ;
#191 = EDGE_LOOP ( 'NONE', ( #242, #211, #247, #229 ) ) ;
#192 = CARTESIAN_POINT ( 'NONE',  ( 0.000000000000000000, 5.000000000000000000, 0.000000000000000000 ) ) ;
#193 = DIRECTION ( 'NONE',  ( 0.9205048534524400417, 0.000000000000000000, -0.3907311284892746039 ) ) ;
#194 = LINE ( 'NONE', #94, #237 ) ;
#195 = DIRECTION ( 'NONE',  ( -0.9205048534524399306, 0.000000000000000000, 0.3907311284892747705 ) ) ;
#196 = DIRECTION ( 'NONE',  ( 0.3907311284892747705, 0.000000000000000000, 0.9205048534524399306 ) ) ;
#197 = AXIS2_PLACEMENT_3D ( 'NONE', #192, #150, #107 ) ;
#198 = DIRECTION ( 'NONE',  ( -0.000000000000000000, 1.000000000000000000, -0.000000000000000000 ) ) ;
#199 = FACE_OUTER_BOUND ( 'NONE', #191, .T. ) ;
#200 =( LENGTH_UNIT ( ) NAMED_UNIT ( * ) SI_UNIT ( .MILLI., .METRE. ) );
#201 = UNCERTAINTY_MEASURE_WITH_UNIT (LENGTH_MEASURE( 1.000000000000000082E-05 ), #141, 'distance_accuracy_value', 'NONE');
#202 = AXIS2_PLACEMENT_3D ( 'NONE', #172, #30, #131 ) ;
#203 = LINE ( 'NONE', #35, #241 ) ;
#204 = FILL_AREA_STYLE ('',( #183 ) ) ;
#205 = APPLICATION_CONTEXT ( 'automotive_design' ) ;
#206 = ORIENTED_EDGE ( 'NONE', *, *, #187, .F. ) ;
#207 = VECTOR ( 'NONE', #81, 1000.000000000000114 ) ;
#208 =( GEOMETRIC_REPRESENTATION_CONTEXT ( 3 ) GLOBAL_UNCERTAINTY_ASSIGNED_CONTEXT ( ( #201 ) ) GLOBAL_UNIT_ASSIGNED_CONTEXT ( ( #141, #119, #184 ) ) REPRESENTATION_CONTEXT ( 'NONE', 'WORKASPACE' ) );
#209 = ORIENTED_EDGE ( 'NONE', *, *, #225, .F. ) ;
#210 = ORIENTED_EDGE ( 'NONE', *, *, #121, .T. ) ;
#211 = ORIENTED_EDGE ( 'NONE', *, *, #2, .F. ) ;
#212 = DIRECTION ( 'NONE',  ( 0.000000000000000000, 0.000000000000000000, 1.000000000000000000 ) ) ;
#213 = VERTEX_POINT ( 'NONE', #120 ) ;
#214 = DIRECTION ( 'NONE',  ( -0.000000000000000000, -1.000000000000000000, -0.000000000000000000 ) ) ;
#215 = CARTESIAN_POINT ( 'NONE',  ( 13.91348772099911635, 5.000000000000000000, 12.39999999999999680 ) ) ;
#216 = CARTESIAN_POINT ( 'NONE',  ( -13.91348772099910569, 0.000000000000000000, -12.40000000000000391 ) ) ;
#217 = CARTESIAN_POINT ( 'NONE',  ( 0.000000000000000000, 5.000000000000000000, 0.000000000000000000 ) ) ;
#218 = LINE ( 'NONE', #251, #220 ) ;
#219 = LINE ( 'NONE', #19, #207 ) ;
#220 = VECTOR ( 'NONE', #91, 1000.000000000000000 ) ;
#221 = EDGE_LOOP ( 'NONE', ( #226, #40, #99, #210 ) ) ;
#222 =( NAMED_UNIT ( * ) SI_UNIT ( $, .STERADIAN. ) SOLID_ANGLE_UNIT ( ) );
#223 = VECTOR ( 'NONE', #214, 1000.000000000000000 ) ;
#224 = SURFACE_STYLE_FILL_AREA ( #204 ) ;
#225 = EDGE_CURVE ( 'NONE', #146, #68, #123, .T. ) ;
#226 = ORIENTED_EDGE ( 'NONE', *, *, #235, .F. ) ;
#227 = ORIENTED_EDGE ( 'NONE', *, *, #1, .F. ) ;
#228 = FACE_BOUND ( 'NONE', #28, .T. ) ;
#229 = ORIENTED_EDGE ( 'NONE', *, *, #92, .T. ) ;
#230 = DIRECTION ( 'NONE',  ( -0.000000000000000000, -1.000000000000000000, -0.000000000000000000 ) ) ;
#231 = FACE_OUTER_BOUND ( 'NONE', #3, .T. ) ;
#232 = PRODUCT_DEFINITION_SHAPE ( 'NONE', 'NONE',  #138 ) ;
#233 = PRODUCT_RELATED_PRODUCT_CATEGORY ( 'part', '', ( #90 ) ) ;
#234 = CARTESIAN_POINT ( 'NONE',  ( 0.000000000000000000, 0.000000000000000000, 0.000000000000000000 ) ) ;
#235 = EDGE_CURVE ( 'NONE', #5, #146, #20, .T. ) ;
#236 = CARTESIAN_POINT ( 'NONE',  ( 13.91348772099911635, 5.000000000000000000, 12.39999999999999680 ) ) ;
#237 = VECTOR ( 'NONE', #176, 1000.000000000000000 ) ;
#238 = PLANE ( 'NONE',  #10 ) ;
#239 = CARTESIAN_POINT ( 'NONE',  ( 0.000000000000000000, 5.000000000000000000, 0.000000000000000000 ) ) ;
#240 = PLANE ( 'NONE',  #182 ) ;
#241 = VECTOR ( 'NONE', #80, 1000.000000000000000 ) ;
#242 = ORIENTED_EDGE ( 'NONE', *, *, #83, .T. ) ;
#243 = PLANE ( 'NONE',  #65 ) ;
#244 = VERTEX_POINT ( 'NONE', #77 ) ;
#245 = ORIENTED_EDGE ( 'NONE', *, *, #55, .F. ) ;
#246 = AXIS2_PLACEMENT_3D ( 'NONE', #234, #49, #174 ) ;
#247 = ORIENTED_EDGE ( 'NONE', *, *, #18, .F. ) ;
#248 = ORIENTED_EDGE ( 'NONE', *, *, #76, .F. ) ;
#249 = ORIENTED_EDGE ( 'NONE', *, *, #225, .T. ) ;
#250 = AXIS2_PLACEMENT_3D ( 'NONE', #151, #50, #93 ) ;
#251 = CARTESIAN_POINT ( 'NONE',  ( -3.386512279000882586, 5.000000000000000000, 12.39999999999999680 ) ) ;
#252 = SHAPE_DEFINITION_REPRESENTATION ( #232, #114 ) ;
#253 = ADVANCED_FACE ( 'NONE', ( #36, #156 ), #240, .F. ) ;
#254 = ADVANCED_FACE ( 'NONE', ( #199 ), #243, .F. ) ;
#255 = FACE_OUTER_BOUND ( 'NONE', #67, .T. ) ;
#256 = CARTESIAN_POINT ( 'NONE',  ( -3.386512279000882586, 5.000000000000000000, 12.39999999999999680 ) ) ;
#257 = CLOSED_SHELL ( 'NONE', ( #171, #129, #63, #38, #254, #21, #253, #142 ) ) ;
#258 = CARTESIAN_POINT ( 'NONE',  ( 0.000000000000000000, 0.000000000000000000, 0.000000000000000000 ) ) ;
#259 = COLOUR_RGB ( '',0.7921568627450980005, 0.8196078431372548767, 0.9333333333333333481 ) ;
#260 = LINE ( 'NONE', #236, #153 ) ;
#261 = DIRECTION ( 'NONE',  ( 0.000000000000000000, 0.000000000000000000, 1.000000000000000000 ) ) ;
ENDSEC;
END-ISO-10303-21;
