ISO-10303-21;
HEADER;
FILE_DESCRIPTION (( 'STEP AP214' ),
    '1' );
FILE_NAME ('1147084.STEP',
    '2026-03-11T09:37:28',
    ( '' ),
    ( '' ),
    'SwSTEP 2.0',
    'SolidWorks 2024',
    '' );
FILE_SCHEMA (( 'AUTOMOTIVE_DESIGN' ));
ENDSEC;

DATA;
#1 = PRODUCT_DEFINITION_SHAPE ( 'NONE', 'NONE',  #17 ) ;
#2 = CARTESIAN_POINT ( 'NONE',  ( 3.386512279000885250, 5.000000000000000000, -12.40000000000000036 ) ) ;
#3 = ORIENTED_EDGE ( 'NONE', *, *, #84, .F. ) ;
#4 = LINE ( 'NONE', #218, #57 ) ;
#5 = ORIENTED_EDGE ( 'NONE', *, *, #76, .F. ) ;
#6 = EDGE_CURVE ( 'NONE', #126, #29, #228, .T. ) ;
#7 = AXIS2_PLACEMENT_3D ( 'NONE', #222, #260, #198 ) ;
#8 = VERTEX_POINT ( 'NONE', #171 ) ;
#9 = CARTESIAN_POINT ( 'NONE',  ( 0.000000000000000000, 5.000000000000000000, 0.000000000000000000 ) ) ;
#10 = MANIFOLD_SOLID_BREP ( 'M10 Gewindebohrung1', #242 ) ;
#11 = CARTESIAN_POINT ( 'NONE',  ( 13.91348772099911102, 5.000000000000000000, 12.40000000000000036 ) ) ;
#12 = LINE ( 'NONE', #131, #107 ) ;
#13 = LINE ( 'NONE', #138, #164 ) ;
#14 = EDGE_CURVE ( 'NONE', #25, #241, #210, .T. ) ;
#15 = VECTOR ( 'NONE', #41, 1000.000000000000000 ) ;
#16 = DIRECTION ( 'NONE',  ( 1.000000000000000000, 0.000000000000000000, -3.008190998803712055E-16 ) ) ;
#17 = PRODUCT_DEFINITION ( 'UNKNOWN', '', #115, #124 ) ;
#18 = CARTESIAN_POINT ( 'NONE',  ( -13.91348772099911280, 5.000000000000000000, -12.39999999999999503 ) ) ;
#19 = CARTESIAN_POINT ( 'NONE',  ( -13.91348772099911280, 5.000000000000000000, -12.39999999999999503 ) ) ;
#20 = DIRECTION ( 'NONE',  ( 0.000000000000000000, 0.000000000000000000, 1.000000000000000000 ) ) ;
#21 = MECHANICAL_DESIGN_GEOMETRIC_PRESENTATION_REPRESENTATION (  '', ( #78 ), #121 ) ;
#22 = ORIENTED_EDGE ( 'NONE', *, *, #233, .T. ) ;
#23 = DIRECTION ( 'NONE',  ( -0.000000000000000000, -1.000000000000000000, -0.000000000000000000 ) ) ;
#24 = UNCERTAINTY_MEASURE_WITH_UNIT (LENGTH_MEASURE( 1.000000000000000082E-05 ), #161, 'distance_accuracy_value', 'NONE');
#25 = VERTEX_POINT ( 'NONE', #74 ) ;
#26 = ADVANCED_FACE ( 'NONE', ( #145 ), #147, .F. ) ;
#27 = ORIENTED_EDGE ( 'NONE', *, *, #154, .T. ) ;
#28 = AXIS2_PLACEMENT_3D ( 'NONE', #2, #221, #87 ) ;
#29 = VERTEX_POINT ( 'NONE', #92 ) ;
#30 = SURFACE_STYLE_USAGE ( .BOTH. , #91 ) ;
#31 = EDGE_CURVE ( 'NONE', #126, #238, #167, .T. ) ;
#32 = AXIS2_PLACEMENT_3D ( 'NONE', #60, #134, #58 ) ;
#33 = EDGE_LOOP ( 'NONE', ( #5, #261 ) ) ;
#34 = EDGE_LOOP ( 'NONE', ( #56, #209, #247, #225 ) ) ;
#35 = AXIS2_PLACEMENT_3D ( 'NONE', #232, #77, #150 ) ;
#36 = DIRECTION ( 'NONE',  ( 3.008190998803712055E-16, -0.000000000000000000, 1.000000000000000000 ) ) ;
#37 = EDGE_CURVE ( 'NONE', #143, #128, #146, .T. ) ;
#38 = DIRECTION ( 'NONE',  ( -0.3907311284892747150, -0.000000000000000000, -0.9205048534524399306 ) ) ;
#39 = FACE_OUTER_BOUND ( 'NONE', #229, .T. ) ;
#40 = FACE_OUTER_BOUND ( 'NONE', #102, .T. ) ;
#41 = DIRECTION ( 'NONE',  ( 0.3907311284892746039, 0.000000000000000000, 0.9205048534524400417 ) ) ;
#42 = PRODUCT_RELATED_PRODUCT_CATEGORY ( 'part', '', ( #204 ) ) ;
#43 =( NAMED_UNIT ( * ) SI_UNIT ( $, .STERADIAN. ) SOLID_ANGLE_UNIT ( ) );
#44 = VECTOR ( 'NONE', #196, 1000.000000000000000 ) ;
#45 = ORIENTED_EDGE ( 'NONE', *, *, #6, .T. ) ;
#46 = FACE_BOUND ( 'NONE', #33, .T. ) ;
#47 = PRODUCT_CONTEXT ( 'NONE', #235, 'mechanical' ) ;
#48 = UNCERTAINTY_MEASURE_WITH_UNIT (LENGTH_MEASURE( 1.000000000000000082E-05 ), #190, 'distance_accuracy_value', 'NONE');
#49 = CARTESIAN_POINT ( 'NONE',  ( 0.000000000000000000, 5.000000000000000000, 0.000000000000000000 ) ) ;
#50 = VECTOR ( 'NONE', #254, 1000.000000000000000 ) ;
#51 = ORIENTED_EDGE ( 'NONE', *, *, #55, .T. ) ;
#52 = ORIENTED_EDGE ( 'NONE', *, *, #31, .T. ) ;
#53 = PRESENTATION_STYLE_ASSIGNMENT (( #30 ) ) ;
#54 = ADVANCED_FACE ( 'NONE', ( #40 ), #173, .F. ) ;
#55 = EDGE_CURVE ( 'NONE', #162, #126, #13, .T. ) ;
#56 = ORIENTED_EDGE ( 'NONE', *, *, #202, .F. ) ;
#57 = VECTOR ( 'NONE', #23, 1000.000000000000000 ) ;
#58 = DIRECTION ( 'NONE',  ( 0.000000000000000000, 0.000000000000000000, 1.000000000000000000 ) ) ;
#59 = CARTESIAN_POINT ( 'NONE',  ( -13.91348772099911280, 5.000000000000000000, -12.39999999999999503 ) ) ;
#60 = CARTESIAN_POINT ( 'NONE',  ( 0.000000000000000000, 5.000000000000000000, 0.000000000000000000 ) ) ;
#61 = PLANE ( 'NONE',  #82 ) ;
#62 = CARTESIAN_POINT ( 'NONE',  ( -13.91348772099911280, 5.000000000000000000, -12.39999999999999503 ) ) ;
#63 = DIRECTION ( 'NONE',  ( 0.3907311284892746039, 0.000000000000000000, 0.9205048534524400417 ) ) ;
#64 = PLANE ( 'NONE',  #135 ) ;
#65 =( NAMED_UNIT ( * ) PLANE_ANGLE_UNIT ( ) SI_UNIT ( $, .RADIAN. ) );
#66 = ORIENTED_EDGE ( 'NONE', *, *, #175, .F. ) ;
#67 = CYLINDRICAL_SURFACE ( 'NONE', #7, 4.249999999999998224 ) ;
#68 = VECTOR ( 'NONE', #63, 1000.000000000000000 ) ;
#69 = EDGE_CURVE ( 'NONE', #29, #118, #12, .T. ) ;
#70 = FILL_AREA_STYLE ('',( #243 ) ) ;
#71 =( NAMED_UNIT ( * ) PLANE_ANGLE_UNIT ( ) SI_UNIT ( $, .RADIAN. ) );
#72 = EDGE_LOOP ( 'NONE', ( #201, #106, #207, #22 ) ) ;
#73 = VECTOR ( 'NONE', #165, 1000.000000000000000 ) ;
#74 = CARTESIAN_POINT ( 'NONE',  ( 5.204748896376249713E-16, 8.673617379884035472E-16, -4.249999999999998224 ) ) ;
#75 = EDGE_LOOP ( 'NONE', ( #208, #51, #45, #90 ) ) ;
#76 = EDGE_CURVE ( 'NONE', #8, #241, #142, .T. ) ;
#77 = DIRECTION ( 'NONE',  ( -0.000000000000000000, 1.000000000000000000, -0.000000000000000000 ) ) ;
#78 = STYLED_ITEM ( 'NONE', ( #53 ), #10 ) ;
#79 = FACE_OUTER_BOUND ( 'NONE', #189, .T. ) ;
#80 = CARTESIAN_POINT ( 'NONE',  ( -13.91348772099911280, 0.000000000000000000, -12.39999999999999503 ) ) ;
#81 = FACE_OUTER_BOUND ( 'NONE', #129, .T. ) ;
#82 = AXIS2_PLACEMENT_3D ( 'NONE', #111, #194, #94 ) ;
#83 = DIRECTION ( 'NONE',  ( 0.000000000000000000, 0.000000000000000000, 1.000000000000000000 ) ) ;
#84 = EDGE_CURVE ( 'NONE', #238, #118, #93, .T. ) ;
#85 = VERTEX_POINT ( 'NONE', #231 ) ;
#86 = COLOUR_RGB ( '',0.7921568627450980005, 0.8196078431372548767, 0.9333333333333333481 ) ;
#87 = DIRECTION ( 'NONE',  ( 0.3907311284892747705, 0.000000000000000000, 0.9205048534524399306 ) ) ;
#88 = ORIENTED_EDGE ( 'NONE', *, *, #183, .F. ) ;
#89 = CARTESIAN_POINT ( 'NONE',  ( 5.204748896376249713E-16, 5.000000000000000000, -4.249999999999999112 ) ) ;
#90 = ORIENTED_EDGE ( 'NONE', *, *, #179, .T. ) ;
#91 = SURFACE_SIDE_STYLE ('',( #149 ) ) ;
#92 = CARTESIAN_POINT ( 'NONE',  ( 3.386512279000885250, 5.000000000000000000, -12.40000000000000036 ) ) ;
#93 = LINE ( 'NONE', #110, #251 ) ;
#94 = DIRECTION ( 'NONE',  ( 0.000000000000000000, -0.000000000000000000, 1.000000000000000000 ) ) ;
#95 = AXIS2_PLACEMENT_3D ( 'NONE', #9, #193, #227 ) ;
#96 = CARTESIAN_POINT ( 'NONE',  ( -3.386512279000888803, 5.000000000000000000, 12.40000000000000391 ) ) ;
#97 = PLANE ( 'NONE',  #156 ) ;
#98 = CARTESIAN_POINT ( 'NONE',  ( -3.386512279000888803, 5.000000000000000000, 12.40000000000000391 ) ) ;
#99 = LINE ( 'NONE', #181, #68 ) ;
#100 = ORIENTED_EDGE ( 'NONE', *, *, #249, .F. ) ;
#101 = APPLICATION_PROTOCOL_DEFINITION ( 'draft international standard', 'automotive_design', 1998, #235 ) ;
#102 = EDGE_LOOP ( 'NONE', ( #108, #139, #119, #159 ) ) ;
#103 = AXIS2_PLACEMENT_3D ( 'NONE', #152, #211, #212 ) ;
#104 = ORIENTED_EDGE ( 'NONE', *, *, #233, .F. ) ;
#105 = CARTESIAN_POINT ( 'NONE',  ( 0.000000000000000000, 0.000000000000000000, 0.000000000000000000 ) ) ;
#106 = ORIENTED_EDGE ( 'NONE', *, *, #31, .F. ) ;
#107 = VECTOR ( 'NONE', #132, 1000.000000000000000 ) ;
#108 = ORIENTED_EDGE ( 'NONE', *, *, #175, .T. ) ;
#109 = CARTESIAN_POINT ( 'NONE',  ( 5.204748896376249713E-16, 5.000000000000000000, -4.249999999999998224 ) ) ;
#110 = CARTESIAN_POINT ( 'NONE',  ( 3.386512279000885250, 0.000000000000000000, -12.40000000000000036 ) ) ;
#111 = CARTESIAN_POINT ( 'NONE',  ( 0.000000000000000000, 0.000000000000000000, 0.000000000000000000 ) ) ;
#112 = DIRECTION ( 'NONE',  ( -0.000000000000000000, -1.000000000000000000, -0.000000000000000000 ) ) ;
#113 = DIRECTION ( 'NONE',  ( 1.000000000000000000, 0.000000000000000000, -3.008190998803712055E-16 ) ) ;
#114 = CARTESIAN_POINT ( 'NONE',  ( 0.000000000000000000, 8.673617379884035472E-16, 4.249999999999998224 ) ) ;
#115 = PRODUCT_DEFINITION_FORMATION_WITH_SPECIFIED_SOURCE ( 'ANY', '', #204, .NOT_KNOWN. ) ;
#116 = DIRECTION ( 'NONE',  ( 1.000000000000000000, 0.000000000000000000, 0.000000000000000000 ) ) ;
#117 = EDGE_LOOP ( 'NONE', ( #123, #166, #27, #205 ) ) ;
#118 = VERTEX_POINT ( 'NONE', #197 ) ;
#119 = ORIENTED_EDGE ( 'NONE', *, *, #179, .F. ) ;
#120 = DIRECTION ( 'NONE',  ( 1.000000000000000000, 0.000000000000000000, -3.008190998803712055E-16 ) ) ;
#121 =( GEOMETRIC_REPRESENTATION_CONTEXT ( 3 ) GLOBAL_UNCERTAINTY_ASSIGNED_CONTEXT ( ( #48 ) ) GLOBAL_UNIT_ASSIGNED_CONTEXT ( ( #190, #71, #130 ) ) REPRESENTATION_CONTEXT ( 'NONE', 'WORKASPACE' ) );
#122 = EDGE_LOOP ( 'NONE', ( #191, #248 ) ) ;
#123 = ORIENTED_EDGE ( 'NONE', *, *, #14, .F. ) ;
#124 = PRODUCT_DEFINITION_CONTEXT ( 'detailed design', #170, 'design' ) ;
#125 = ADVANCED_FACE ( 'NONE', ( #136, #81 ), #61, .F. ) ;
#126 = VERTEX_POINT ( 'NONE', #217 ) ;
#127 = DIRECTION ( 'NONE',  ( -0.3907311284892747150, -0.000000000000000000, -0.9205048534524399306 ) ) ;
#128 = VERTEX_POINT ( 'NONE', #80 ) ;
#129 = EDGE_LOOP ( 'NONE', ( #100, #66, #3, #185 ) ) ;
#130 =( NAMED_UNIT ( * ) SI_UNIT ( $, .STERADIAN. ) SOLID_ANGLE_UNIT ( ) );
#131 = CARTESIAN_POINT ( 'NONE',  ( 3.386512279000885250, 5.000000000000000000, -12.40000000000000036 ) ) ;
#132 = DIRECTION ( 'NONE',  ( -0.000000000000000000, -1.000000000000000000, -0.000000000000000000 ) ) ;
#133 = ADVANCED_FACE ( 'NONE', ( #177 ), #216, .F. ) ;
#134 = DIRECTION ( 'NONE',  ( -0.000000000000000000, 1.000000000000000000, -0.000000000000000000 ) ) ;
#135 = AXIS2_PLACEMENT_3D ( 'NONE', #49, #160, #200 ) ;
#136 = FACE_BOUND ( 'NONE', #122, .T. ) ;
#137 = ADVANCED_BREP_SHAPE_REPRESENTATION ( '1147084', ( #10, #174 ), #192 ) ;
#138 = CARTESIAN_POINT ( 'NONE',  ( -3.386512279000888803, 5.000000000000000000, 12.40000000000000391 ) ) ;
#139 = ORIENTED_EDGE ( 'NONE', *, *, #37, .F. ) ;
#140 = VECTOR ( 'NONE', #157, 1000.000000000000000 ) ;
#141 = FACE_OUTER_BOUND ( 'NONE', #34, .T. ) ;
#142 = CIRCLE ( 'NONE', #103, 4.249999999999999112 ) ;
#143 = VERTEX_POINT ( 'NONE', #59 ) ;
#144 = ADVANCED_FACE ( 'NONE', ( #79 ), #97, .F. ) ;
#145 = FACE_OUTER_BOUND ( 'NONE', #117, .T. ) ;
#146 = LINE ( 'NONE', #172, #151 ) ;
#147 = CYLINDRICAL_SURFACE ( 'NONE', #95, 4.249999999999998224 ) ;
#148 = EDGE_CURVE ( 'NONE', #199, #25, #259, .T. ) ;
#149 = SURFACE_STYLE_FILL_AREA ( #70 ) ;
#150 = DIRECTION ( 'NONE',  ( 0.000000000000000000, 0.000000000000000000, 1.000000000000000000 ) ) ;
#151 = VECTOR ( 'NONE', #112, 1000.000000000000000 ) ;
#152 = CARTESIAN_POINT ( 'NONE',  ( 0.000000000000000000, 5.000000000000000000, 0.000000000000000000 ) ) ;
#153 = DIRECTION ( 'NONE',  ( 0.9205048534524400417, 0.000000000000000000, -0.3907311284892746039 ) ) ;
#154 = EDGE_CURVE ( 'NONE', #199, #8, #257, .T. ) ;
#155 = CARTESIAN_POINT ( 'NONE',  ( 0.000000000000000000, 8.673617379884035472E-16, 0.000000000000000000 ) ) ;
#156 = AXIS2_PLACEMENT_3D ( 'NONE', #18, #153, #256 ) ;
#157 = DIRECTION ( 'NONE',  ( -0.000000000000000000, 1.000000000000000000, -0.000000000000000000 ) ) ;
#158 = APPLICATION_PROTOCOL_DEFINITION ( 'draft international standard', 'automotive_design', 1998, #170 ) ;
#159 = ORIENTED_EDGE ( 'NONE', *, *, #69, .T. ) ;
#160 = DIRECTION ( 'NONE',  ( -0.000000000000000000, 1.000000000000000000, 0.000000000000000000 ) ) ;
#161 =( LENGTH_UNIT ( ) NAMED_UNIT ( * ) SI_UNIT ( .MILLI., .METRE. ) );
#162 = VERTEX_POINT ( 'NONE', #96 ) ;
#163 = PLANE ( 'NONE',  #28 ) ;
#164 = VECTOR ( 'NONE', #16, 1000.000000000000000 ) ;
#165 = DIRECTION ( 'NONE',  ( -0.000000000000000000, -1.000000000000000000, -0.000000000000000000 ) ) ;
#166 = ORIENTED_EDGE ( 'NONE', *, *, #148, .F. ) ;
#167 = LINE ( 'NONE', #11, #73 ) ;
#168 = CARTESIAN_POINT ( 'NONE',  ( 3.386512279000885250, 5.000000000000000000, -12.40000000000000036 ) ) ;
#169 = VECTOR ( 'NONE', #127, 1000.000000000000114 ) ;
#170 = APPLICATION_CONTEXT ( 'automotive_design' ) ;
#171 = CARTESIAN_POINT ( 'NONE',  ( 0.000000000000000000, 5.000000000000000000, 4.249999999999999112 ) ) ;
#172 = CARTESIAN_POINT ( 'NONE',  ( -13.91348772099911280, 5.000000000000000000, -12.39999999999999503 ) ) ;
#173 = PLANE ( 'NONE',  #214 ) ;
#174 = AXIS2_PLACEMENT_3D ( 'NONE', #105, #20, #116 ) ;
#175 = EDGE_CURVE ( 'NONE', #118, #128, #195, .T. ) ;
#176 = CARTESIAN_POINT ( 'NONE',  ( -13.91348772099911280, 0.000000000000000000, -12.39999999999999503 ) ) ;
#177 = FACE_OUTER_BOUND ( 'NONE', #72, .T. ) ;
#178 = DIRECTION ( 'NONE',  ( -1.000000000000000000, 0.000000000000000000, 3.008190998803712055E-16 ) ) ;
#179 = EDGE_CURVE ( 'NONE', #29, #143, #230, .T. ) ;
#180 = VECTOR ( 'NONE', #120, 1000.000000000000000 ) ;
#181 = CARTESIAN_POINT ( 'NONE',  ( -13.91348772099911280, 0.000000000000000000, -12.39999999999999503 ) ) ;
#182 = CARTESIAN_POINT ( 'NONE',  ( 13.91348772099911102, 0.000000000000000000, 12.40000000000000036 ) ) ;
#183 = EDGE_CURVE ( 'NONE', #143, #162, #236, .T. ) ;
#184 = VECTOR ( 'NONE', #244, 1000.000000000000000 ) ;
#185 = ORIENTED_EDGE ( 'NONE', *, *, #226, .F. ) ;
#186 = SHAPE_DEFINITION_REPRESENTATION ( #1, #137 ) ;
#187 = ORIENTED_EDGE ( 'NONE', *, *, #6, .F. ) ;
#188 = CIRCLE ( 'NONE', #35, 4.249999999999998224 ) ;
#189 = EDGE_LOOP ( 'NONE', ( #206, #104, #88, #245 ) ) ;
#190 =( LENGTH_UNIT ( ) NAMED_UNIT ( * ) SI_UNIT ( .MILLI., .METRE. ) );
#191 = ORIENTED_EDGE ( 'NONE', *, *, #148, .T. ) ;
#192 =( GEOMETRIC_REPRESENTATION_CONTEXT ( 3 ) GLOBAL_UNCERTAINTY_ASSIGNED_CONTEXT ( ( #24 ) ) GLOBAL_UNIT_ASSIGNED_CONTEXT ( ( #161, #65, #43 ) ) REPRESENTATION_CONTEXT ( 'NONE', 'WORKASPACE' ) );
#193 = DIRECTION ( 'NONE',  ( -0.000000000000000000, 1.000000000000000000, -0.000000000000000000 ) ) ;
#194 = DIRECTION ( 'NONE',  ( -0.000000000000000000, 1.000000000000000000, 0.000000000000000000 ) ) ;
#195 = LINE ( 'NONE', #176, #50 ) ;
#196 = DIRECTION ( 'NONE',  ( -1.000000000000000000, -0.000000000000000000, 3.008190998803712055E-16 ) ) ;
#197 = CARTESIAN_POINT ( 'NONE',  ( 3.386512279000885250, 0.000000000000000000, -12.40000000000000036 ) ) ;
#198 = DIRECTION ( 'NONE',  ( 0.000000000000000000, 0.000000000000000000, 1.000000000000000000 ) ) ;
#199 = VERTEX_POINT ( 'NONE', #114 ) ;
#200 = DIRECTION ( 'NONE',  ( 0.000000000000000000, -0.000000000000000000, 1.000000000000000000 ) ) ;
#201 = ORIENTED_EDGE ( 'NONE', *, *, #226, .T. ) ;
#202 = EDGE_CURVE ( 'NONE', #25, #199, #188, .T. ) ;
#203 = ORIENTED_EDGE ( 'NONE', *, *, #84, .T. ) ;
#204 = PRODUCT ( '1147084', '1147084', '', ( #47 ) ) ;
#205 = ORIENTED_EDGE ( 'NONE', *, *, #76, .T. ) ;
#206 = ORIENTED_EDGE ( 'NONE', *, *, #249, .T. ) ;
#207 = ORIENTED_EDGE ( 'NONE', *, *, #55, .F. ) ;
#208 = ORIENTED_EDGE ( 'NONE', *, *, #183, .T. ) ;
#209 = ORIENTED_EDGE ( 'NONE', *, *, #14, .T. ) ;
#210 = LINE ( 'NONE', #109, #184 ) ;
#211 = DIRECTION ( 'NONE',  ( -0.000000000000000000, 1.000000000000000000, -0.000000000000000000 ) ) ;
#212 = DIRECTION ( 'NONE',  ( 0.000000000000000000, 0.000000000000000000, 1.000000000000000000 ) ) ;
#213 = DIRECTION ( 'NONE',  ( -0.000000000000000000, 1.000000000000000000, -0.000000000000000000 ) ) ;
#214 = AXIS2_PLACEMENT_3D ( 'NONE', #19, #36, #113 ) ;
#215 = EDGE_CURVE ( 'NONE', #241, #8, #223, .T. ) ;
#216 = PLANE ( 'NONE',  #258 ) ;
#217 = CARTESIAN_POINT ( 'NONE',  ( 13.91348772099911102, 5.000000000000000000, 12.40000000000000036 ) ) ;
#218 = CARTESIAN_POINT ( 'NONE',  ( -3.386512279000888803, 5.000000000000000000, 12.40000000000000391 ) ) ;
#219 = ADVANCED_FACE ( 'NONE', ( #39 ), #163, .F. ) ;
#220 = PRESENTATION_LAYER_ASSIGNMENT (  '', '', ( #78 ) ) ;
#221 = DIRECTION ( 'NONE',  ( -0.9205048534524399306, 0.000000000000000000, 0.3907311284892747705 ) ) ;
#222 = CARTESIAN_POINT ( 'NONE',  ( 0.000000000000000000, 5.000000000000000000, 0.000000000000000000 ) ) ;
#223 = CIRCLE ( 'NONE', #32, 4.249999999999999112 ) ;
#224 = ORIENTED_EDGE ( 'NONE', *, *, #69, .F. ) ;
#225 = ORIENTED_EDGE ( 'NONE', *, *, #154, .F. ) ;
#226 = EDGE_CURVE ( 'NONE', #85, #238, #240, .T. ) ;
#227 = DIRECTION ( 'NONE',  ( 0.000000000000000000, 0.000000000000000000, 1.000000000000000000 ) ) ;
#228 = LINE ( 'NONE', #168, #169 ) ;
#229 = EDGE_LOOP ( 'NONE', ( #203, #224, #187, #52 ) ) ;
#230 = LINE ( 'NONE', #250, #44 ) ;
#231 = CARTESIAN_POINT ( 'NONE',  ( -3.386512279000888803, 0.000000000000000000, 12.40000000000000391 ) ) ;
#232 = CARTESIAN_POINT ( 'NONE',  ( 0.000000000000000000, 8.673617379884035472E-16, 0.000000000000000000 ) ) ;
#233 = EDGE_CURVE ( 'NONE', #162, #85, #4, .T. ) ;
#234 = CARTESIAN_POINT ( 'NONE',  ( 0.000000000000000000, 5.000000000000000000, 4.249999999999998224 ) ) ;
#235 = APPLICATION_CONTEXT ( 'automotive_design' ) ;
#236 = LINE ( 'NONE', #62, #15 ) ;
#237 = FACE_OUTER_BOUND ( 'NONE', #75, .T. ) ;
#238 = VERTEX_POINT ( 'NONE', #182 ) ;
#239 = CARTESIAN_POINT ( 'NONE',  ( -3.386512279000888803, 0.000000000000000000, 12.40000000000000391 ) ) ;
#240 = LINE ( 'NONE', #239, #180 ) ;
#241 = VERTEX_POINT ( 'NONE', #89 ) ;
#242 = CLOSED_SHELL ( 'NONE', ( #253, #144, #133, #219, #54, #255, #125, #26 ) ) ;
#243 = FILL_AREA_STYLE_COLOUR ( '', #86 ) ;
#244 = DIRECTION ( 'NONE',  ( -0.000000000000000000, 1.000000000000000000, -0.000000000000000000 ) ) ;
#245 = ORIENTED_EDGE ( 'NONE', *, *, #37, .T. ) ;
#246 = AXIS2_PLACEMENT_3D ( 'NONE', #155, #213, #83 ) ;
#247 = ORIENTED_EDGE ( 'NONE', *, *, #215, .T. ) ;
#248 = ORIENTED_EDGE ( 'NONE', *, *, #202, .T. ) ;
#249 = EDGE_CURVE ( 'NONE', #128, #85, #99, .T. ) ;
#250 = CARTESIAN_POINT ( 'NONE',  ( -13.91348772099911280, 5.000000000000000000, -12.39999999999999503 ) ) ;
#251 = VECTOR ( 'NONE', #38, 1000.000000000000114 ) ;
#252 = DIRECTION ( 'NONE',  ( -3.008190998803712055E-16, 0.000000000000000000, -1.000000000000000000 ) ) ;
#253 = ADVANCED_FACE ( 'NONE', ( #141 ), #67, .F. ) ;
#254 = DIRECTION ( 'NONE',  ( -1.000000000000000000, -0.000000000000000000, 3.008190998803712055E-16 ) ) ;
#255 = ADVANCED_FACE ( 'NONE', ( #46, #237 ), #64, .T. ) ;
#256 = DIRECTION ( 'NONE',  ( -0.3907311284892746039, 0.000000000000000000, -0.9205048534524400417 ) ) ;
#257 = LINE ( 'NONE', #234, #140 ) ;
#258 = AXIS2_PLACEMENT_3D ( 'NONE', #98, #252, #178 ) ;
#259 = CIRCLE ( 'NONE', #246, 4.249999999999998224 ) ;
#260 = DIRECTION ( 'NONE',  ( -0.000000000000000000, 1.000000000000000000, -0.000000000000000000 ) ) ;
#261 = ORIENTED_EDGE ( 'NONE', *, *, #215, .F. ) ;
ENDSEC;
END-ISO-10303-21;
